Cifra Club

I Believe

Hillsong United

Tab de baixo: Principal
exibições 4.681
Intro/Verse 

Riff part 1 
G |-------------------------------------------------------| 
D |-------------------------------------------------------| 
A |7-7--5-5--7-7--5-5--7/10-10-10--3-3-3-3-3--5-5-5-5-5-5-| 
E |-------------------------------------------------------| 

Riff part 2 
G |-------------------------------------------------------| 
D |-------------------------------------------------------| 
A |7-7--5-5--7-7--5-5--7/10-10-10--3-3-3-3-3--0-0-0-0-0-0-| 
E |-------------------------------------------------------| 



Chorus 
G |-------------------------------------------------------| 
D |-------------------------------------------------------| 
A |---------55555555-77777777-7777-5555-33333333-33333333-| 
E |33333333-----------------------------------------------| 

G |--------------------------------------------------------------| 
D |--------------------------------------------------------------| 
A |---------55555555----------33333333---------------------------| 
E |33333333----------55555555----------33333333-5555555555557777-| 

G |--------------------------------------------------| 
D |--------------------------------------------------| 
A |3333333333333333----------------------------------| 
E |-----------------33333333333333333333333333333333-| 


Verse 2 


Riff part 1 
G |-------------------------------------------------------| 
D |-------------------------------------------------------| 
A |7-7--5-5--7-7--5-5--7/10-10-10--3-3-3-3-3--5-5-5-5-5-5-| 
E |-------------------------------------------------------| 

Riff part 2 
G |-------------------------------------------------------| 
D |-------------------------------------------------------| 
A |7-7--5-5--7-7--5-5--7/10-10-10--3-3-3-3-3--0-0-0-0-0-0-| 
E |-------------------------------------------------------| 


Instrumental 

G |------------------------------------------------------------------| 
D |------------------------------------------------------------------| 
A |77777777-33333333-10-10-10-10-10-10-10-10-10-10-10-10-10-10-10-10-| 
E |------------------------------------------------------------------| 


Bridge 
G |------------------------------------------------------------------| 
D |------------------------------------------------------------------| 
A |---------------------------------33333333333333333333333333333333-| 
E |33333333333333333333333333333333----------------------------------| 

G |------------------------------------------------------------------| 
D |55555555555555555555555555555555----------------------------------| 
A |---------------------------------33333333333333333333333333333333-| 
E |------------------------------------------------------------------|
Colaboração e revisão:
  • Ana Nogueira

0 comentários

    mostrar mais comentários

    Conseguiu tocar?

    0tocaram1ainda não

    Grave um vídeo tocando I Believe e mande pra gente!

    00:00 / 00:00
    outros vídeos desta música
    repetirqualidadeautomática
    Outro vídeos desta música
      00:00 / 00:00
      automática
      OK