Cifra Club

En Mi Coche

Hombres G

Cifra (violão e guitarra)
Selo Cifra Club: esta cifra foi revisada para atender aos critérios oficiais da nossa Equipe de Qualidade.
tom: C
INTRO
   F        G        C               D PETIR 2 VECES
E|-----------------------------------|
B|-----------------------------------|
G|-----2--------4--------5-------5---|
D|-3-3-3-3--5-5-5----5-5-5-5-5-5-5-5-|
A|-3-3-3-3--5-5-5-5--3-3---3-3-3---3-|
E|-1-1---1--3-3---3------------------|

  F        G        C                D PETIR 2 VECES
E|-----------------------------------|
B|-----------------------------------|
G|-----------------------5-------5---|
D|-----3--------5----5-5-5-5-5-5-5-5-|
A|-3-3-3-3--5-5-5-5--3-3---3-3-3---3-|
E|-1-1-1-1--3-3---3------------------|
Outros vídeos desta música
    72 exibições
      • ½ Tom
      • A
      • Bb
      • B
      • C
      • Db
      • D
      • Eb
      • E
      • F
      • F#
      • G
      • Ab
    • Adicionar à lista

    Afinação da cifra

    Afinador online

      0 comentários

      Ver todos os comentários

      Entre para o Cifra Club PRO

      Tenha acesso a benefícios exclusivos no App e no Site

      • Chega de anúncios

      • Badges exclusivas

      • Mais recursos no app do Afinador

      • Atendimento Prioritário

      • Aumente seu limite de lista

      • Ajude a produzir mais conteúdo

      Cifra Club Pro

      Aproveite o Cifra Club com benefícios exclusivos e sem anúncios
      Cifra Club Pro
      Aproveite o Cifra Club com benefícios exclusivos e sem anúncios
      Ops (: Contenido disponible sólo en portugués.
      OK