Cifra Club

A Ponte Para o Dia

Humberto Gessinger

Cifra: Principal (violão e guitarra)
tom: G
[Intro] G  C9  G  C 
        G  C9  G  C 

  G             C9
E|-------------|-------------------|
B|---0h1--0--0-|-1-----------------|
G|---0----0--0-|-0--0--2--0--------|
D|---0h2--0--0-|-2--2-------0h2--0-|
A|-------------|-3-----------------|
E|-3-----------|-------------------|

  G             C
E|-------------|---------------|
B|---0h1--0--0-|-1--0----------|
G|---0----0--0-|-0--0--2--0--0-|
D|---0h2--0--0-|-2-----2--2--0-|
A|-------------|-3-------------|
E|-3-----------|---------------|

[Verso 1]

G              C9
 Um travesseiro com teu cheiro
G              C
 Seria a ponte para o dia
G              C9
 Seria noite a vida inteira
G                  C          D
 Se não houvesse a travessia--a
    C/G         D
Preciso atravessar
  C/G        D
A nuvem de metal
    C/G
Que pesa na minha cabeça

( G  C9  G  C )

[Verso 2]

G              C9
 Uma palavra incompreensível
G              C
 Seria a ponte para o dia
G              C9
 Seria noite a vida inteira
G                  C         D
 Não fosse a tua caligrafia--a
    C/G         D
Preciso atravessar
  C/G            D
O caos que há no ar
  C/G
E pesa na minha cabeça

( G  C9  G  C )

[Verso 3]

  G                    C
E|---3---3--3---3---3-|---3---3---3---3---3-|
B|-0---0---0--0---0---|-1---1---1---1---1---|
G|--------------------|---------------------|
D|--------------------|---------------------|
A|--------------------|---------------------|
E|--------------------|---------------------|

G      C
 O GPS enlouquece
G                 C
 A gente esquece aonde ia
G             C
 A mil por um milhão de ruas
G                  C          D
 Cadê o portal pra travessia--a?
   C/G             D
Partir, romper, cruzar
    C/G         D
Preciso atravessar

[Pré Refrão]

Ab°   Am           Ab°         Am
   24 léguas de um dia que não vem
Ab°        Am            C/G           D
   60 toneladas de um minuto em suspensão

[Refrão]

           G     C 
Atravessar - a travessia
           G     C 
Atravessar - a travessia
           G     C        D
Atravessar - a travessia--a
   C/G             D
Partir, romper, cruzar
    C/G         D
Preciso atravessar

[Solo] Am  Ab°  Am  Ab°  Am  C/G  D

[Refrão]

           G     C 
Atravessar - a travessia
           G     C 
Atravessar - a travessia
           G     C        D
Atravessar - a travessia--a
   C/G             D
Partir, romper, cruzar
    C/G         D
Preciso atravessar
  C/G
A ponte para o dia

( G  C9  G  C )
Composição de Bebeto Alves / Humberto Gessinger
Colaboração e revisão:
  • Davi Benevides
  • Cleberson Silva
11.280 exibições
    • ½ Tom
    • A
    • Bb
    • B
    • C
    • Db
    • D
    • Eb
    • E
    • F
    • F#
    • G
    • Ab
  • Adicionar à lista

    0 comentários

    Ver todos os comentários

    Conseguiu tocar?

    7 Tocaram 0 Ainda não

    Grave um vídeo tocando A Ponte Para o Dia e nos envie!

    00:00 / 00:00
    Outros vídeos desta música
    Repetir Qualidade Automático
    Outros vídeos desta música
    00:00 / 00:00
    Automático

    Cifra Club Pro

    Aproveite o Cifra Club com benefícios exclusivos e sem anúncios
    Cifra Club Pro
    Aproveite o Cifra Club com benefícios exclusivos e sem anúncios
    OK