Cifra Club

Bluebird

Ikimono Gakari

Cifra: Base-completa (violão e guitarra)
tom: A
     D7M  C#m7 F#m7      Bm7  E     A
Habatai    ta...ra modora na..i to itte
       D7M  C#7 F#m7   Bm7   E   F#m7
Mezashi ta  no  wa   aoi   aoi ano sora

[Intro] D7M E/D C#m7 F#m7 Bm7 G#m7(b5) C#7
       D7M E/D C#m7 F#m7 Bm7 C#7

       F#m7    E     D7M   C#m7        Bm7    A       G#m7(b5)  C#7
Kanashimi wa mada oboe rare zu setsuna sa wa ima tsukami hajime ta
     F#m7    E         D7M   C#m7      Bm7  E    F#m7
Anata he to idaku kono kanjou mo ima kotoba ni kawatte iku

        D7M  E/D          C#m7   F#m7
Michi naru sekai no yume kara  mezame te
      Bm7                C#7
Kono hane wo hiroge tobitatsu


REFÃO: 
     D7M  C#m7 F#m7      Bm7  E     A
Habatai    ta...ra modora na..i to itte
       D7M C#7 F#m7   Bm7      E  F#m7
Mezashi ta  no  wa  shiroi shiroi ano kumo
      D7M  C#m7 F#m7      Bm7  E    A
Tsukinuke   ta...ra mitsukaru  to shitte
     D7M C#7 F#m7   Bm7  E  F#m7
Furikiru  ho..do   aoi aoi ano sora
 Bm7  E  F#m7
Aoi aoi ano sora
 Bm7  E  F#m7
Aoi aoi ano sora

(D7M E/D C#m7 F#m7 Bm7 C#7)

  F#m7     E     D7M    C#m7        Bm7    A      G#m7(b5)  C#7
Aiso tsuki ta you na oto de sabi re ta furui mado wa koware ta
     F#m7     E         D7M   C#m7     Bm7   E      F#m7
Miaki te kago wa hora sute te iku furikaeru koto wa mou nai

     D7M   E/D         C#m7   F#m7
Takanaru kodou ni kokyuu wo azuke te
      Bm7                C#7
Kono mado wo kette tobitatsu


      D7M  C#m7 F#m7        Bm7  E     A
Kakedashi   ta...ra  te ni deki..ru to itte
    D7M C#7 F#m7     Bm7    E  F#m7
Izanau   no  wa    tooi  tooi  ano koe
       D7M  C#m7 F#m7       Bm7   E    A
Mabushi su...gi   ta  anata no te mo nigitte
     D7M C#7 F#m7   Bm7  E  F#m7
Motomeru  ho..do   aoi aoi  ano sora


[Solo] D#m7(b5) D7M C#m7 C7 Bm7 E

E|-------12--------------------12-----------------------------------|
B|-12b14----14r12-10-----12b14----14r12-10----10-10-----------------|
G|-------------------11--------------------11-----------------------|
D|--------------------------------------------------9b10r9-7----7-7-|
A|------------------------------------------------------------9-----|
E|------------------------------------------------------------------|

E|-------------------------------------------------12---12--12--12--12--|
B|---------------7-9-10-9-7-9-10--10--10--10--10---15b--15b-15b-15b-15b-|
G|--9--9-9-7s9-9--------------12b-12b-12b-12b-12b-----------------------|
D|----------------------------------------------------------------------|
A|----------------------------------------------------------------------|
E|----------------------------------------------------------------------|


  D7M           C#m7         Bm7      C#m7    D7M                C#7
Ochi te iku to wakatte ita soredemo hikari wo oi tsudzuke te iku yo


     D7M  C#m7 F#m7      Bm7  E     A
Habatai    ta...ra modora na..i to itte
       D7M C#7 F#m7    Bm7      E  F#m7
Sagashi ta  no  wa  shiroi shiroi ano kumo
      D7M  C#m7 F#m7      Bm7  E    A
Tsukinuke   ta...ra mitsukaru  to shitte
     D7M C#7 F#m7   Bm7  E  F#m7
Furikiru  ho..do   aoi aoi ano sora
 Bm7  E  F#m7
Aoi aoi ano sora
 Bm7  E  F#m7
Aoi aoi ano sora

[Final] D7M E/D C#m7 F#m7 Bm7 C#7 F#m7
00:00 / 00:00
Outros vídeos desta música
Repetir
Outros vídeos desta música
Compositor não encontrado.
Colaboração e revisão:
  • JP
566 exibições
    • ½ Tom
    • A
    • Bb
    • B
    • C
    • Db
    • D
    • Eb
    • E
    • F
    • F#
    • G
    • Ab
  • Adicionar à lista

    0 comentários

    Ver todos os comentários

    Conseguiu tocar?

    0 Tocaram 0 Ainda não

    Grave um vídeo tocando Bluebird e nos envie!

    Entre para oCifra Club PRO

    Tenha acesso a benefícios exclusivos no App e no Site

    • Chega de anúncios

    • Prioridade de compra em lançamentos

    • Mais recursos no app do Afinador

    • Atendimento Prioritário

    • Descontos nos produtos Cifra Club

    • Ajude a produzir mais conteúdo

    00:00 / 00:00

    Cifra Club Pro

    Aproveite o Cifra Club com benefícios exclusivos e sem anúncios
    Cifra Club Pro
    Aproveite o Cifra Club com benefícios exclusivos e sem anúncios
    OK