Cifra Club

Cê Acredita (part. MC Kevinho)

João Neto e Frederico

Cifra: Principal
exibições 60.029
Tom: C# (com acordes na forma de C) Capotraste na 1ª casa
Intro 2x: Am  Dm  E7

Solo:
E|--13--13-13-13--13-13-------------13--13-13-13--13-13-13-|
B|----------------------11-11-11-11------------------------|
G|---------------------------------------------------------|
D|---------------------------------------------------------|
A|---------------------------------------------------------|
E|---------------------------------------------------------|

E|--18-18-18----------------------13----------------------|
B|------------11-14--11-14--11-14----16--16-14-16--16-14--|
G|--------------------------------------------------------|
D|--------------------------------------------------------|
A|--------------------------------------------------------|
E|--------------------------------------------------------|

E|--------------------------------------------------------|
B|-18--18-18-11-11-11-------------------------------------|
G|--------------------------------------------------------|
D|--------------------------------------------------------|
A|--------------------------------------------------------|
E|--------------------------------------------------------|

Primeira Parte:
 Am                               Dm
Tá virada dois dias e não vai dormir
              E7                 Am
Bateu quinta-feira ela já quer sair
                                Dm
Nem passou o grau ela quer rebater
            E7                 Am
Já anda chamando a ressaca de rê

Pré-Refrão:
                           Dm
Solteira, ela comanda as amigas da zoeira
E7                    Am
E já que ela tá me olhando a noite inteira
                  Dm  E7
Kevin vem, Kevin vem

Refrão:
        Am
Cê acredita?
                                    Dm
Ela chega empinando o bumbum lá em cima
               E7                 Am
Mandando a sarrada no ar com as amigas
                              Dm
Tá só na maldade, acabando comigo
              E7                    Am
Chega aí pra ver, João Neto e Frederico

                                    Dm
Ela chega empinando o bumbum lá em cima
               E7                 Am
Mandando a sarrada no ar com as amigas
                                Dm
Tocando o terror, perdendo a noção
            E7                    Am
Rebola que cola com o bumbum no chão

                   Dm
Novinha chega pra cá
         E7        Am
Essa é pra tu rebolar
                                  Dm
Se joga pra cima de mim que hoje tem
                  Am
Kevin vem, Kevin vem

                   Dm
Novinha chega pra cá
         E7        Am
Essa é pra tu rebolar
                                  Dm
Se joga pra cima de mim que hoje tem
                  Am
Kevin vem, Kevin vem

( Am  Dm  E7 ) (2x)

Solo:
E|--13--13-13-13--13-13-------------13--13-13-13--13-13-13-|
B|----------------------11-11-11-11------------------------|
G|---------------------------------------------------------|
D|---------------------------------------------------------|
A|---------------------------------------------------------|
E|---------------------------------------------------------|

E|--18-18-18----------------------13----------------------|
B|------------11-14--11-14--11-14----16--16-14-16--16-14--|
G|--------------------------------------------------------|
D|--------------------------------------------------------|
A|--------------------------------------------------------|
E|--------------------------------------------------------|

E|--------------------------------------------------------|
B|-18--18-18-11-11-11-------------------------------------|
G|--------------------------------------------------------|
D|--------------------------------------------------------|
A|--------------------------------------------------------|
E|--------------------------------------------------------|

Primeira Parte:
 Am                               Dm
Tá virada dois dias e não vai dormir
              E7                 Am
Bateu quinta-feira ela já quer sair
                                Dm
Nem passou o grau ela quer rebater
            E7                 Am
Já anda chamando a ressaca de rê

Pré-Refrão:
                           Dm
Solteira, ela comanda as amigas da zoeira
E7                    Am
E já que ela tá me olhando a noite inteira
            Dm    E7
Kevin vem, Kevin vem

Refrão:
        Am
Cê acredita?
                                    Dm
Ela chega empinando o bumbum lá em cima
               E7                 Am
Mandando a sarrada no ar com as amigas
                              Dm
Tá só na maldade, acabando comigo
              E7                    Am
Chega aí pra ver, João Neto e Frederico

                                    Dm
Ela chega empinando o bumbum lá em cima
               E7                 Am
Mandando a sarrada no ar com as amigas
                                Dm
Tocando o terror, perdendo a noção
            E7                    Am
Rebola que cola com o bumbum no chão

                   Dm
Novinha chega pra cá
         E7        Am
Essa é pra tu rebolar
                                  Dm
Se joga pra cima de mim que hoje tem
                  Am
Kevin vem, Kevin vem

                   Dm
Novinha chega pra cá
         E7        Am
Essa é pra tu rebolar
                                  Dm
Se joga pra cima de mim que hoje tem
                  Am
Kevin vem, Kevin vem

( Am  Dm  E7 ) (2x)

Solo:
E|--13--13-13-13--13-13-------------13--13-13-13--13-13-13-|
B|----------------------11-11-11-11------------------------|
G|---------------------------------------------------------|
D|---------------------------------------------------------|
A|---------------------------------------------------------|
E|---------------------------------------------------------|

E|--18-18-18----------------------13----------------------|
B|------------11-14--11-14--11-14----16--16-14-16--16-14--|
G|--------------------------------------------------------|
D|--------------------------------------------------------|
A|--------------------------------------------------------|
E|--------------------------------------------------------|

E|--------------------------------------------------------|
B|-18--18-18-11-11-11-------------------------------------|
G|--------------------------------------------------------|
D|--------------------------------------------------------|
A|--------------------------------------------------------|
Acordes para:
    Colaboração e revisão:

    0 comentários

      mostrar mais comentários

      Conseguiu tocar?

      5tocaram0ainda não

      Grave um vídeo tocando Cê Acredita (part. MC Kevinho) e mande pra gente!

      00:00 / 00:00
      outros vídeos desta música
      repetirqualidadeautomática
      Outro vídeos desta música
        00:00 / 00:00
        automática
        OK