Cifra Club

Só de Você

João Neto e Frederico

Cifra: Principal (violão e guitarra)
tom: C
[Intro] C  G  Am  F  G 
        C  G  Am  F  G  C

E|------------------------------------------------|
B|-8-6-5-3--6-5------------5-6-5h6p5-3-3-1-3-3/5~-|
G|-9-7-5-4--5-5-5-5h7--5-7------------------------|
D|--------------5-5h7-----------------------------|
A|------------------------------------------------|
E|------------------------------------------------|

E|------------------------------------------------|
B|-8-6-5-3--6-5----------------3/5---6-5-3-1-3-1~-|
G|-9-7-5-4--5-5-5-5h7--5-5-5-7--------------------|
D|--------------5-5h7--------------7--------------|
A|------------------------------------------------|
E|------------------------------------------------|

[primeira parte]

C                G                 Am
Outra noite nós dois e o desejo no ar
                F          G       C
Cada beijo que rola faz o mundo parar
                    G                     Am
E eu só penso em você com a força do coração
                  F          G           C   G
Cada segundo que passa aumenta minha paixão

[pré-refrão]

C          G                Am      G        F
  Você me faz sonhar e acordar flutuando no céu
C          G                     Am               G
  E eu só sei te amar, o nosso amor é uma lua de mel

[refrão]

C                   G                    Am
  E pode o céu desabar, a terra toda tremer
                      F          G          C
Que eu jamais vou deixar de te amar, te querer
                    G                Am
Enquanto a lua brilhar e o sol aparecer
                  F           G       C
Juro que meu coração vai ser só de você

C                   G                    Am
  E pode o céu desabar, a terra toda tremer
                      F          G          C
Que eu jamais vou deixar de te amar, te querer
                    G                Am
Enquanto a lua brilhar e o sol aparecer
                  F           G       C
Juro que meu coração vai ser só de você

[Solo] C  G  Am  F  G
       C  G  Am  F  G  C

E|------------------------------------------------|
B|-8-6-5-3--6-5-------------5-5/6-5-3-3-1-3-3/5~--|
G|-9-7-5-4--5-5-5-5h7---5-7-----------------------|
D|--------------5-5h7-----------------------------|
A|------------------------------------------------|
E|------------------------------------------------|

E|------------------------------------------------|
B|-8-6-5-3--6-5----------------3/5---6-5-3-1-3-1~-|
G|-9-7-5-4--5-5-5-5h7--5-5-5-7--------------------|
D|--------------5-5h7--------------7--------------|
A|------------------------------------------------|
E|------------------------------------------------|

[pré-refrão]

C          G                Am      G        F
  Você me faz sonhar e acordar flutuando no céu
C          G                     Am               G
  E eu só sei te amar, o nosso amor é uma lua de mel

[refrão]

C                   G                    Am
  E pode o céu desabar, a terra toda tremer
                      F          G          C
Que eu jamais vou deixar de te amar, te querer
                    G                Am
Enquanto a lua brilhar e o sol aparecer
                  F           G       C
Juro que meu coração vai ser só de você

C                   G                    Am
  E pode o céu desabar, a terra toda tremer
                      F          G          C
Que eu jamais vou deixar de te amar, te querer
                    G                Am
Enquanto a lua brilhar e o sol aparecer
                  F           G       C
Juro que meu coração vai ser só de você

( G  Am ) 

F          G       C
  Vai ser só de você

( G  Am ) 

F          G       C
  Vai ser só de você
00:00 / 00:00
Outros vídeos desta música
Repetir
Outros vídeos desta música
Composição de Everton Matos / Jairo Goes / Rivanil
570.776 exibições
    • ½ Tom
    • A
    • Bb
    • B
    • C
    • Db
    • D
    • Eb
    • E
    • F
    • F#
    • G
    • Ab
  • Adicionar à lista

    0 comentários

    Ver todos os comentários

    Entre para oCifra Club PRO

    Tenha acesso a benefícios exclusivos no App e no Site

    • Chega de anúncios

    • Prioridade de compra em lançamentos

    • Mais recursos no app do Afinador

    • Atendimento Prioritário

    • Descontos nos produtos Cifra Club

    • Ajude a produzir mais conteúdo

    00:00 / 00:00

    Cifra Club Pro

    Aproveite o Cifra Club com benefícios exclusivos e sem anúncios
    Cifra Club Pro
    Aproveite o Cifra Club com benefícios exclusivos e sem anúncios
    OK