Cifra Club

Só de Você

João Neto e Frederico

Cifra: Principal
exibições 541.553
Tom: C
(intro) C G Am F   C G Am F G C

E|---------------------------------------------------|
B|-8-6-5----6-5-----------------5-5/6-5-3-3-1-3-3/5~-|
G|-------7~-----4-4/5~--5-5-5-7----------------------|
D|---------------------------------------------------|
A|---------------------------------------------------|
E|---------------------------------------------------|

E|----------------------------------1-0----------|
B|-8-6-5----6-5-----------------5-------3-1-3-1~-|
G|-------7~-----4-4/5~--5-5-5-7---2--------------|
D|-----------------------------------------------|
A|-----------------------------------------------|
E|-----------------------------------------------|

C               G                  Am
Outra noite nós dois e o desejo no ar.
               F                   C
Cada beijo que rola faz o mundo parar.
                 G                       Am
E eu só penso em você com a força do coração.
                 F             G         C    G
Cada segundo que passa aumenta minha paixão. Owwoooo.

(riff 1)
E|------------------|
B|-------------5/7~-|
G|---------5-7------|
D|-7p5-5-7----------|
A|------------------|
E|------------------|

C        G               Am                F
Você me faz sonhar e acordar flutuando no céu.

(riff 2)
E|-------------------|
B|-13-13-13-12-10-8~-|
G|-------------------|
D|-------------------|
A|-------------------|
E|-------------------|

C       G                     Am                G
E eu só sei te amar, o nosso amor é uma lua de mel.

(riff 3)
E|----------------------|
B|-------------5-6-6/8~-|
G|-------4-5-7----------|
D|-5h7-5----------------|
A|----------------------|
E|----------------------|

(refrão 2x)
C                 G                   Am
E pode o céu desabar, a terra toda tremer.
                       F         G          C
Que eu jamais vou deixar de te amar  te querer.
                   G                Am
Enquanto a lua brilhar e o sol aparecer.
                   F           G      C
Juro que  meu coração vai ser só de você.

(riff 4)
E|------------|
B|------------|
G|-----4-7-5~-|
D|-5-7--------|
A|------------|
E|------------|

C                 G                   Am
E pode o céu desabar, a terra toda tremer.
                       F         G          C
Que eu jamais vou deixar de te amar  te querer.

(riff 4)
E|------------|
B|------------|
G|-----4-7-5~-|
D|-5-7--------|
A|------------|
E|------------|
                  G                Am
Enquanto a lua brilhar e o sol aparecer.
                   F           G      C
Juro que  meu coração vai ser só de você.

(solo) C G Am F  C G Am F G C

"Você me faz sonhar..."

0 comentários

    mostrar mais comentários

    Conseguiu tocar?

    20tocaram0ainda não

    Grave um vídeo tocando Só de Você e mande pra gente!

    00:00 / 00:00
    outros vídeos desta música
    repetirqualidadeautomática
    Outro vídeos desta música
      00:00 / 00:00
      automática
      OK