Notificações Amigos pendentes

      João Neto e Frederico

      Só de Você

      537.302 exibições
      Tom: C
      (intro) C G Am F   C G Am F G C
      
      
      E|---------------------------------------------------|
      B|-8-6-5----6-5-----------------5-5/6-5-3-3-1-3-3/5~-|
      G|-------7~-----4-4/5~--5-5-5-7----------------------|
      D|---------------------------------------------------|
      A|---------------------------------------------------|
      E|---------------------------------------------------|
      
      
      E|----------------------------------1-0----------|
      B|-8-6-5----6-5-----------------5-------3-1-3-1~-|
      G|-------7~-----4-4/5~--5-5-5-7---2--------------|
      D|-----------------------------------------------|
      A|-----------------------------------------------|
      E|-----------------------------------------------|
      
      
      C               G                  Am
      Outra noite nós dois e o desejo no ar.
                     F                   C
      Cada beijo que rola faz o mundo parar.
                       G                       Am
      E eu só penso em você com a força do coração.
                       F             G         C    G
      Cada segundo que passa aumenta minha paixão. Owwoooo.
      
      (riff 1)
      
      E|------------------|
      B|-------------5/7~-|
      G|---------5-7------|
      D|-7p5-5-7----------|
      A|------------------|
      E|------------------|
      
      
      C        G               Am                F
      Você me faz sonhar e acordar flutuando no céu.
      
      (riff 2)
      
      E|-------------------|
      B|-13-13-13-12-10-8~-|
      G|-------------------|
      D|-------------------|
      A|-------------------|
      E|-------------------|
      
      
      C       G                     Am                G
      E eu só sei te amar, o nosso amor é uma lua de mel.
      
      (riff 3)
      
      E|----------------------|
      B|-------------5-6-6/8~-|
      G|-------4-5-7----------|
      D|-5h7-5----------------|
      A|----------------------|
      E|----------------------|
      
      
      (refrão 2x)
      C                 G                   Am
      E pode o céu desabar, a terra toda tremer.
                             F         G          C
      Que eu jamais vou deixar de te amar  te querer.
                         G                Am
      Enquanto a lua brilhar e o sol aparecer.
                         F           G      C
      Juro que  meu coração vai ser só de você.
      
      (riff 4)
      
      E|------------|
      B|------------|
      G|-----4-7-5~-|
      D|-5-7--------|
      A|------------|
      E|------------|
      
      
      C                 G                   Am
      E pode o céu desabar, a terra toda tremer.
                             F         G          C
      Que eu jamais vou deixar de te amar  te querer.
      
      (riff 4)
      
      E|------------|
      B|------------|
      G|-----4-7-5~-|
      D|-5-7--------|
      A|------------|
      E|------------|
      
                        G                Am
      Enquanto a lua brilhar e o sol aparecer.
                         F           G      C
      Juro que  meu coração vai ser só de você.
      
      (solo) C G Am F  C G Am F G C
      
      "Você me faz sonhar..."
        Composição: Jairo Goes, Rivanil e Everton MatosColaboração e revisão:
        • pauloricardorsx
        • -•{..ArThur..}•-
        • cabeça
        • Felipe Mardegan
        • +12

        Comentários 9

        140 .
        • rafael.aguiar.92 rafael.aguiar.92: Em 18/03/2014 20:46

          Esse é o tom original eles tocam exatamente assim no dvd.

        • juancarlosdf juancarlosdf: Em 18/07/2013 14:46

          Gostaria de apreender essa musica no tom original se alguém souber me ajude manda pra meu e-mail valeu galera

        • jordan_martins jordan_martins: Em 16/06/2012 00:17

          galera o ritmo e baixo baixo cima cima baixo cima

          • juniorloko253 juniorloko253: Em 14/01/2013 22:32

            mano esse ritmo naum cola nessa musica naum tem escala pa esse ritmo

        • marcelomqm marcelomqm: Em 24/03/2012 02:23

          alquem pode mi esina o ritmo vlw

        • james_emanuel james_emanuel: Em 23/06/2011 20:17

          Muito show a musica xD

        • johnlsas johnlsas: Em 26/02/2011 09:40

          linda *-*

        • Paulo Ricardo Paulo Ricardo: Em 06/02/2011 13:00

          ai galera se os riffs n estiverem tbm bom fala comigo q vou consertar mas acho q o que eu coloquei ai ficou legal vlw :D

        • Renan e si Renan e si: Em 28/12/2010 16:26

          essa MÚSICA, ofereci a minha esposa quando éramos namorados há 3 anos atras... te amo simone

        140 cancelar

        conseguiu tocar?

        • •••
        0:00 / 0:00

        Capítulos

          play/pausefechar subir/descer velocidade
          6ª corda E5ª corda A4ª corda D3ª corda G2ª corda B1ª corda E
            acordes
            publicidade
            fechar
            ok