Cifra Club

Te Amo e Nada Mais

João Neto e Frederico

Cifra: Principal
exibições 214.151
Tom: F
Intro: Dm Bb F C

   Dm                Bb               F              C
E|-1----1---1---0---1----1---1---0---1----1---0-1---0-----0---0-|
B|-3----3---3---3---3----3---3---3---1----1---0-1---1-----1---1-|
G|-2--2---2---2-----3--3---3---3-----2--2---2-------0---0---0---|
D|-0------------------------------------------------------------|
A|------------------1----------------3--------------3-----------|
E|--------------------------------------------------------------|

(1ª Parte)

  Dm
Teus olhos
       Bb
O teu jeito
                                 F
A sua voz fala baixinho em meu ouvido
         C
São teus dedos
      Dm
O teu toque
         Bb
O teu suspiro que não sai do pensamento
                 F
Eu sei que não resisto

(2ª Parte)

         C
Eu já conheço suas manhas e manias
                     Dm
Já não vale o seu disfarce, a gente fica em sintonia
                      Bb
Eu já cansei de inventar você pro coração
            C
Pro meu coração

(Refrão)

    F
Eu não te amo como ontem
              Bb
Amo mil vezes mais
                                            Dm
Me conte os teus segredos, mostre os seus sinais
                                 C
Se me perguntar qual é o seu defeito ainda não sei (te amo e nada mais)

    F
Eu não te amo como ontem
              Bb
Amo mil vezes mais
                                            Dm
Me conte os teus segredos, mostre os seus sinais
                                 C
E se me perguntar qual é o seu defeito ainda não sei
              Dm
Te amo e nada mais

   Dm               Bb               F
E|-1----1---1---0---1----1---1---0---1----1---0-1---|
B|-3----3---3---3---3----3---3---3---1----1---0-1---|
G|-2--2---2---2-----3--3---3---3-----2--2---2-------|
D|-0------------------------------------------------|
A|------------------1----------------3--------------|
E|--------------------------------------------------|

No C (dó) entra na 2ª Parte

Refrão 2x

(Dm Bb)

   Dm         Bb                 F       C
E|-------------------------------------------|
B|-----------10h-----------13----------15-13-|
G|-7-9/10-10-----7-9/10-10----10-12-14-------|
D|-------------------------------------------|
A|-------------------------------------------|
E|-------------------------------------------|

0 comentários

    mostrar mais comentários

    Conseguiu tocar?

    40tocaram2ainda não

    Grave um vídeo tocando Te Amo e Nada Mais e mande pra gente!

    00:00 / 00:00
    outros vídeos desta música
    repetirqualidadeautomática
    Outro vídeos desta música
      00:00 / 00:00
      automática
      OK