Cifra Club

Mais Uma Vez

Jota Quest

Cifra: Principal (violão e guitarra)
tom: A
[Intro] Bb5  F  Gm
        Bb5  Gm  Eb

    Bb5        F         Gm
E|------------------------------------------|
B|------------------------------------------|
G|-----3h5p3------2h3-------5/7-5-3-3/5-----|
D|-3-3-3----------3---------5/7-5-3-3/5-----|
A|-1-1--------3-3------5-5------------------|
E|---------------------3-3------------------|

    Bb5              Gm   Eb
E|-----------------------3------------------|
B|-----------------------4------------------|
G|-----3h5p3-------------3------------------|
D|-3-3-3-----------------5------------------|
A|-1-1--------3-4-5-5-5--6------------------|
E|------------------3-3---------------------|

[Primeira Parte]

Bb                    F
   Te tenho com a certeza de que você pode ir
Gm
   Te amo com a certeza de que irá voltar
Bb                  Gm
   Pra gente ser feliz
               Eb
Você surgiu e juntos conseguimos ir mais longe
Bb                 F                Gm
   Você dividiu comigo a sua história

E me ajudou a construir a minha
Bb                               Gm
   Hoje mais do que nunca somos dois
         Eb
A nossa liberdade é o que nos prende

( Bb  F  Gm  Bb  F  Gm  Eb )

    Bb        F         Gm
E|-----1-x-x-----1-x-x-----3----------------|
B|-----3-x-x-----1-x-x-----3----------------|
G|-----3-x-x-----2-x-x-----3----------------|
D|-3-3-3-x-x-----3-x-x-----5---3---3h5-3----|
A|-1-1---x-x-3-3---x-x-5-5-5-5---3-------5\-|
E|-------x-x-1-1---x-x-3-3------------------|

    Bb              Gm   Eb
E|-----1-x-x------------3--3----------------|
B|-----3-x-x------------4--4----------------|
G|-----3-x-x------------3--3----------------|
D|-3-3-3-x-x------------5--5----------------|
A|-1-1---x-x-3-4-5-5-5--6--6----------------|
E|-------x-x-------3-3----------------------|

[Pré-refrão]

Bb       F          Gm
   Viva todo o seu mundo
Bb                  Gm  Eb
   Sinta toda liberdade
Bb             F       Gm
   E quando a hora chegar, volta
Bb
   Que o nosso amor está acima das coisas
Eb
   Desse mundo

[Refrão]

Eb        Dm           Cm
   Vai dizer que o tempo
       Eb            Gm
Não parou naquele momento
      Eb         Dm
Eu espero por você
   Cm
O tempo que for
       Dm
Pra ficarmos juntos
Eb      F
   Mais uma vez

( Bb5  F  Gm )
( Bb5  Gm  Eb )

    Bb5         F        Gm
E|------------------------------------------|
B|------------------------------------------|
G|-----3h5p3------2h3-------5/7-5-3-3/5-----|
D|-3-3-3----------3---------5/7-5-3-3/5-----|
A|-1-1--------3-3------5-5------------------|
E|---------------------3-3------------------|

    Bb5              Gm   Eb
E|-----------------------3------------------|
B|-----------------------4------------------|
G|-----3h5p3-------------3------------------|
D|-3-3-3-----------------5------------------|
A|-1-1--------3-4-5-5-5--6------------------|
E|------------------3-3---------------------|

( Bb  F  Gm  Bb  F  Gm  Eb )

[Primeira Parte]

Bb                    F
   Te tenho com a certeza de que você pode ir
Gm
   Te amo com a certeza de que irá voltar
Bb                  Gm
   Pra gente ser feliz
               Eb
Você surgiu e juntos conseguimos ir mais longe
Bb                 F               Gm
   Você dividiu comigo a sua história

E me ajudou a construir a minha
Bb                        Eb
   Hoje mais do que nunca    somos dois

[Refrão]

Eb        Dm           Cm
   Vai dizer que o tempo
       Eb            Gm
Não parou naquele momento
      Eb         Dm
Eu espero por você
   Cm
O tempo que for
       Dm
Pra ficarmos juntos
Eb      F       Eb  Dm  Cm
   Mais uma vez

       Eb            Gm
Não parou naquele momento
      Eb         Dm
Eu espero por você
   Cm
O tempo que for
       Dm
Pra ficarmos juntos
Eb      F
   Mais uma vez

[Final] Bb5  F  Gm
        Bb5  Gm  Eb

    Bb5        F         Gm
E|------------------------------------------|
B|------------------------------------------|
G|-----3h5p3------2h3-------5/7-5-3-3/5-----|
D|-3-3-3----------3---------5/7-5-3-3/5-----|
A|-1-1--------3-3------5-5------------------|
E|---------------------3-3------------------|

    Bb5              Gm   Eb
E|-----------------------3------------------|
B|-----------------------4------------------|
G|-----3h5p3-------------3------------------|
D|-3-3-3-----------------5------------------|
A|-1-1--------3-4-5-5-5--6------------------|
E|------------------3-3---------------------|
00:00 / 00:00
Outros vídeos desta música
Repetir
Outros vídeos desta música
Composição de Fernanda Mello / Fernanda Melo / PJ / Rogério Flausino
1.257.095 exibições
  • Simplificar cifra
    • ½ Tom
    • A
    • Bb
    • B
    • C
    • Db
    • D
    • Eb
    • E
    • F
    • F#
    • G
    • Ab
  • Adicionar à lista

    0 comentários

    Ver todos os comentários

    Conseguiu tocar?

    60 Tocaram 6 Ainda não

    Grave um vídeo tocando Mais Uma Vez e nos envie!

    00:00 / 00:00
    Capítulos
    • Início
    • Tocando a música
    • Acordes da Introdução
    • Tocando Introdução
    • Ensinando Introdução
    • Acordes da Primeira Parte
    • Tocando Primeira Parte
    • Ensinando Primeira Parte
    • Tocando Pré-Refrão
    • Ensinando Pré-Refrão
    • Acordes do Refrão
    • Tocando Refrão
    • Ensinando Refrão
    • Tocando Final
    • Encerramento

    Cifra Club Pro

    Aproveite o Cifra Club com benefícios exclusivos e sem anúncios
    Cifra Club Pro
    Aproveite o Cifra Club com benefícios exclusivos e sem anúncios
    OK