Cifra Club

Aprenda

I Think She Knows

Justin Timberlake

Cifra: Versão 3 (violão e guitarra)
Já pensou em usar uma coleção de roupas do Cifra Club? Responda as perguntas abaixo e nos ajude nessa missão! →
tom: Ab
Base :
E|--------------------------------------------|
B|--------------------------------------------|
G|--------------------------------------------|
D|------------3-3--------------3--------------|
A|--------3-6--------------3-6---3------------|
E|-4--4-6-----------4--4-6--------------------|

Refrão

Bbm                            F5
Those flashing lights come from everywhere
Bbm                            F5
The way they hit her I just stop and stare
Bbm
She's got me love stoned
F5                            Eb5
Man I swear she's bad and she knows
C5
I think that she knows

Base:
E|--------------------------------------------|
B|--------------------------------------------|
G|--------------------------------------------|
D|------------3-3--------------3--------------|
A|--------3-6--------------3-6---3------------|
E|-4--4-6-----------4--4-6--------------------|

Final :
F5  Eb5  Db5 
Ab5 Eb5  Db5

F5  Eb5  Db5 
Those flashing lights come from everywhere
Ab5 Eb5  Db5
The way they hit her I just stop and stare
F5  Eb5  Db5 
I'm love stoned from everywhere and she knows
Ab5 Eb5  Db5
I think that she knows
F5  Eb5  Db5 
Think that she knows, oh, oh
Ab5 Eb5  Db5
And now I walk around without a care
F5  Eb5  Db5 
She's got me hooked
Ab5 Eb5  Db5
It just ain't fair, but I...
F5  Eb5  Db5 
I'm love stoned and I could swear
Ab5 Eb5  Db5
That she knows
F5  Eb5  Db5 
Think that she knows, oh, oh
Ab5 Eb5  Db5
She knows, she knows, oh, oh
Composição de Justin Timberlake / T. Mosley
Colaboração e revisão:
  • Eric Rubens
264 exibições
    • ½ Tom
    • A
    • Bb
    • B
    • C
    • Db
    • D
    • Eb
    • E
    • F
    • F#
    • G
    • Ab
  • Adicionar à lista

    0 comentários

    Ver todos os comentários

    Conseguiu tocar?

    0 Tocaram 0 Ainda não

    Grave um vídeo tocando I Think She Knows e nos envie!

    00:00 / 00:00
    Outros vídeos desta música
    Repetir Qualidade Automático
    Outros vídeos desta música
    00:00 / 00:00
    Automático

    Cifra Club Pro

    Aproveite o Cifra Club com benefícios exclusivos e sem anúncios
    Cifra Club Pro
    Aproveite o Cifra Club com benefícios exclusivos e sem anúncios
    OK