Cifra Club

Antes e Depois da Tempestade

k a m a i t a c h i

Cifra: Principal (violão e guitarra)
tom: G#m
[Intro] G#m  F#  E
        G#m  F#  E
        G#m  F#  E
        G#m  F#  E

E|------------------------------------------|
B|------------------------------------------|
G|-4h6-4-------4-------4-4h6-4--------------|
D|-------6-4-6---6-4-6---------6-4-6-4------|
A|-------------------------------------6-4-6|
E|------------------------------------------|

E|------------------------------------------|
B|------------------------------------------|
G|---4h6-4---4--6/8-6-4-6--4----------------|
D|-4--------6-------------6-----------------|
A|------------------------------------------|
E|------------------------------------------|

E|------------------------------------------|
B|------------------------------------------|
G|-4h6-4------------------------------------|
D|-------4h6-4------------------------------|
A|-------------4h6-4------------------------|
E|-------------------4h7-4------------------|

[Primeira Parte]

    G#m              F#          E
Deitada vejo a foto de quando criança
   G#m                F#                E
Ficávamos tão bem naquelas roupas de pirata
   G#m                 F#                  E
E toda vez que vejo a foto vem aquela lembrança
    G#m            F#                 E
Do dia que tiramos aquelas fotos tão raras

[Solo] G#m  F#  E 
       G#m  F#  E 
       G#m  F#  E 
       G#m  F#  E 

E|------------------------------------------|
B|------------------------------------------|
G|-4h6-4-------4-------4-4h6-4--------------|
D|-------6-4-6---6-4-6---------6-4-6-4------|
A|-------------------------------------6-4-6|
E|------------------------------------------|

E|------------------------------------------|
B|------------------------------------------|
G|---4h6-4---4--6/8-6-4-6--4----------------|
D|-4--------6-------------6-----------------|
A|------------------------------------------|
E|------------------------------------------|

E|------------------------------------------|
B|------------------------------------------|
G|-4h6-4------------------------------------|
D|-------4h6-4------------------------------|
A|-------------4h6-4------------------------|
E|-------------------4h7-4------------------|

[Segunda Parte]

G#m  F#  E          
Eu, tô   odiando tudo
                   G#m
Mesmo que me dê um oi
 F#    E            
Sou a pessoa babaca
                        G#m  F#
Que sente prazer em desconhecer
   E                         
O mundo ilusório essa Matrix
       G#m    F#     E
Que vocês querem sofrer

 G#m   F#  E
Já perdi, tudo nessa vida

E tudo que eu queria
  G#m  F#  E                       
Era fugir, eu e você e umas bebidas
         G#m      F#
Pra bem longe daqui
   E                       
Andaremos naqueles trilhos
              G#m    F#    E  
De mãos dadas até o nosso fim

[Refrão]

C#m                     G#m   C#m
  Ainda lembro do teus beijos
                       G#m
E a tempestade que vem
              C#m
E trás o medo
                        G#m
Entenda que eu já nem existo
     F#
Vai Max retorne o tempo

Mas cuide de si mesmo

Conserte tudo

[Solo] G#m  F#  E 
       G#m  F#  E
       G#m  F#  E
       G#m  F#  E 

E|------------------------------------------|
B|------------------------------------------|
G|-4h6-4-------4-------4-4h6-4--------------|
D|-------6-4-6---6-4-6---------6-4-6-4------|
A|-------------------------------------6-4-6|
E|------------------------------------------|

E|------------------------------------------|
B|------------------------------------------|
G|---4h6-4---4--6/8-6-4-6--4----------------|
D|-4--------6-------------6-----------------|
A|------------------------------------------|
E|------------------------------------------|

E|------------------------------------------|
B|------------------------------------------|
G|-4h6-4------------------------------------|
D|-------4h6-4------------------------------|
A|-------------4h6-4------------------------|
E|-------------------4h7-4------------------|

[Terceira Parte]

 G#m           F#
Rachel atuava bem
 E
Naquele falso espetáculo
 G#m               F#     E
De pessoas com expressões e sorrisos falsos
  G#m               F#
Ela exclama vem meu Ariel
      E
"Compristes" todas minhas vontades?
 G#m             F#
Como que voastes esse céu
      E
Que clama a raiva em tempestade?

E|------------------------------------------|
B|------------------------------------------|
G|-13-15-16--8-6-6/8---6-4---3-4------------|
D|--------------------6---6------6----------|
A|------------------------------------------|
E|------------------------------------------|

( G#m  F#  E ) 
( G#m  F#  E )
( G#m  F#  E ) 
( G#m  F#  E )

[Quarta Parte]

 G#m        F#             E
Tu me prometeu que a liberdade que eu cobiçava
            G#m
Consequentemente
   F#           E
Seria meu, em troca desse mar de alma que com medo
     G#m     F#
O inferno escureceu
   E                          
E veio transformar esse barco
                    G#m   F#    E
Em brasa que com o vento se perdeu

G#m   F#     E                     
Ó meu Ariel não suportarei ver-te
          G#m    F#
Voando a sós por esse céu
 E                               
Tu suportarias ver-me amargurar
      G#m   F#
Em tamanha dor cruel
    E                      
Prometo te fazer esquecer
             G#m   F#   E
A liberdade se me for fiel

[Refrão]

C#m                     G#m   C#m
  Ainda lembro do teus beijos
                          G#m
E as cinzas que vem e caem
               C#m
Em teus cabelos
                      G#m
Pegaremos o trem das cinco
       F#
Vem Chloe deixe comigo

Pois somos passarinhos

Em busca de um novo ninho

Ou algum dos infinitos

Que nunca descobrimos

Teremos tanta coisa pra contar

[Final] G#m  F#  E 
        G#m  F#  E 
        G#m  F#  E 
        G#m  F#  E
00:00 / 00:00
Outros vídeos desta música
Repetir
Outros vídeos desta música
Composição de E4GL3 / K a m a i t a c h i
69.349 exibições
    • ½ Tom
    • Am
    • Bbm
    • Bm
    • Cm
    • C#m
    • Dm
    • Ebm
    • Em
    • Fm
    • F#m
    • Gm
    • G#m
  • Adicionar à lista

    0 comentários

    Ver todos os comentários

    Conseguiu tocar?

    85 Tocaram 21 Ainda não

    Grave um vídeo tocando Antes e Depois da Tempestade e nos envie!

    Entre para oCifra Club PRO

    Tenha acesso a benefícios exclusivos no App e no Site

    • Chega de anúncios

    • Prioridade de compra em lançamentos

    • Mais recursos no app do Afinador

    • Atendimento Prioritário

    • Descontos nos produtos Cifra Club

    • Ajude a produzir mais conteúdo

    00:00 / 00:00

    Cifra Club Pro

    Aproveite o Cifra Club com benefícios exclusivos e sem anúncios
    Cifra Club Pro
    Aproveite o Cifra Club com benefícios exclusivos e sem anúncios
    OK