Cifra Club

Detroit Rock City

Kiss

Cifra: Principal
exibições 169.405
Tom: A#
Intro - Base: A5  B5  A5  B5
Intro - Solo 2x:
E|-----------------------------------------|
B|-----------------------------------------|
G|-----------------------------------------|
D|-----------------------------------------|   (6x)
A|---3--1--3--1--3--1--3--1----------------|
E|-----------------------------------------|

E|-----------------------------------------|
B|-----------------------------------------|
G|-----------------------------------------|
D|-----------------------------------------|
A|---3--3--3--3--3--3--3-------------------|
E|-----------------------------------------|
  ( G5  G#5  D#5   A#5 )
E|-----------------------------------------|
B|-----------------------------------------|
G|-----------------------------------------|
D|-----------8-----------------------------|
A|--5---6----6----8------------------------|
E|--3---4---------6------------------------|

  C5
I feel uptight on a Saturday night
D#5                                     A#5    F5
 Nine o'clock and the radio's the only light
C5
I hear my song and it pulls me trough
D#5                                       A#5  F5
 Comes on strong, tells me what I gotta' do I got to

G5      G#5
    Get up!
Everybody's gonna' move their feet
D#5     A#5
   Get down!
Everybody's gonna' leave their seat
Riff 1:
E|------------------------------------------|
B|------------------------------------------|
G|------------------------------------------|
D|----------------------------1---------1---|
A|-3--3--1-----1--3--3--1--3-----3----1---3-|
E|----------3-----------------------3-------|
You gotta' lose your mind in Detroit Rock City

G5      G#5
    Get up!
Everybody's gonna' move their feet
D#5     A#5
   Get down!
Everybody's gonna' leave their seat

 C5
Getting late, I just can't wait
D#5                                       A#5    F5
 Ten o'clock and I know I gotta' hit the road
 C5
First I drink, then I smoke
D#5                                             A#5   F5
 Start the car and I try to make the midnight show

G5      G#5
    Get up!
Everybody's gonna' move their feet
D#5     A#5
   Get down!
Everybody's gonna' leave their seat
Riff 2:
E|------------------------------------------|
B|------------------------------------------|
G|------------------------------------------|
D|----------------------------1---------1---|
A|-3--3--1-----1--3--3--1--3-----3----1---3-|
E|----------3-----------------------3-------|

E|------------------------------------------|
B|------------------------------------------|
G|------------------------------------------|
D|----------------------------1-------------|
A|-3--3--1-----1--3--3--1--3-----3--5-------|
E|----------3-------------------------------|

E|------------------------------------------|
B|------------------------------------------|
G|------------------------------------------|
D|--------------------------3---------3-----|
A|--5--3-----3--5--5--3--5-----5----3---5---|
E|--------5-----------------------5---------|

E|------------------------------------------|
B|------------------------------------------|
G|------------------------------------------|
D|-----------3-----------1------------------|
A|--5--3--5-----5------1----3---------------|
E|------------------3-----------------------|

  ( G5  G#5  D#5   A#5 )
E|------------------------------------------|
B|------------------------------------------|
G|------------------------------------------|
D|-----------8------------------------------|
A|--5---6----6----8-------------------------|
E|--3---4---------6-------------------------|

 C5
Movin' fast doin' ninety-five
 D#5                                          A#5   F5
Hit top speed but I'm still movin' much too slow
C5
I feel so good, I'm so alive
D#5                               A#5   F5
I hear my song playin' on the radio
It goes

G5      G#5
    Get up!
Everybody's gonna' move their feet
D#5     A#5
   Get down!
Everybody's gonna' leave their seat
E|---------------------------------------------------|
B|---------------------------------------------------|
G|---------------------------------------------------|
D|---------------------------------------------------|
A|--------3------------------------------------------|
E|--3--6---------------------------------------------|

Solo:
E|---------------------------------------------------|
B|--------3----4p3----4p3---------3-4-3--------------|
G|------3---5------5-------5--3-3-------3------------|
D|--4/5-----------------------------------6-5-6------|
A|---------------------------------------------------|
E|---------------------------------------------------|

E|---------------------------------------------------|
B|---------------------------------------------------|
G|--5p3---5p3----------------------------------------|
D|------6-----6-5------------------------------------|
A|---------------------------------------------------|
E|---------------------------------------------------|

E|---------------------------------------------------|
B|--------3----4p3----4p3---------3-4-3--------------|
G|------3---5------5-------5--3-3-------3------------|
D|--4/5-----------------------------------6-5-6------|
A|---------------------------------------------------|
E|---------------------------------------------------|

E|---------------------------------------------------|
B|---------------------------------------------------|
G|--5/9-10-10-10-10-10-10-10-10----------------------|
D|---------------------------------------------------|
A|---------------------------------------------------|
E|---------------------------------------------------|

  ( G5  G#5  D#5   A#5 )
E|-----------------------------------------|
B|-----------------------------------------|
G|-----------------------------------------|
D|-----------8-----------------------------|
A|--5---6----6----8------------------------|
E|--3---4---------6------------------------|

Riff 1:
E|-----------------------------------------|
B|-----------------------------------------|
G|-----------------------------------------|
D|----------------------------1--------1---|
A|-3--3--1-----1--3--3--1--3-----3---1---3-|
E|----------3----------------------3-------|

 ( G5  G#5  D#5   A#5 )
E|-----------------------------------------|
B|-----------------------------------------|
G|-----------------------------------------|
D|-----------8-----------------------------|
A|--5---6----6----8------------------------|
E|--3---4---------6------------------------|

C5
Twelve o'clock, I gotta rock
D#5                                         A#5   F5
There's a truck ahead, lights starin' at my eyes
C5
Oh my God! No time to turn
D#5                                      A#5   F5
I got to laugh 'cause I know I'm gonna' die!
Why?
(2x)
G5      G#5
    Get up!  Everybody's gonna' move their feet

( D#5  A#5 )

G5      G#5
Get down!  Everybody's gonna' move their feet

( D#5     A#5 )
Acordes para:

    0 comentários

      mostrar mais comentários

      Conseguiu tocar?

      92tocaram1ainda não

      Grave um vídeo tocando Detroit Rock City e mande pra gente!

      00:00 / 00:00
      outros vídeos desta música
      repetirqualidadeautomática
      Outro vídeos desta música
        00:00 / 00:00
        automática
        Capítulos
        • Início
        • Tocando a música
        • Power chords da introdução
        • Tocando solo da introdução
        • Ensinando solo da intro
        • Power chords da primeira parte
        • Tocando o Riff 1
        • Ensinando Riff 1
        • Ensinando Riff 2
        • Tocando Solo
        • Passagem do solo
        • Ensinando Solo (parte 1)
        • Ensinando Solo (parte 2)
        • Ensinando Solo (parte 3 e 4)
        • Encerramento
        OK