Cifra Club

Rock'n Roll All Nite

KISS

Cifra: Principal (violão e guitarra)
tom: Ab
[Intro] C#  Ab  D#  Ab  D#

[Tab - Riff 1]

   C#
E|------------------------------------------|
B|-6h7-6h7-6--6-7-6-7--6--------------------|
G|-6-------6--6-6-6-6--6--------------------|
D|-6h8-6h8-6--6-8-6-8--6--------------------|
A|------------------------------------------|
E|------------------------------------------|
   ↓   ↓   ↓  ↑ ↓ ↑ ↓  ↑

[Tab - Riff 2]

   Ab               D#
E|------------------------------------------|
B|-x-1--1-1-1-1-1-x-8-8-9--8-9--8-----------|
G|-x-1--1-1-1-1-1-x-8-8-8--8-8--8-----------| (2x)
D|-x-1--1-3-1-3-1-x-8-8-10-8-10-8-----------|
A|-x----------------------------------------|
E|------------------------------------------|
   ↓ ↓  ↑ ↓ ↑ ↓ ↑ ↓ ↓ ↑ ↓  ↑ ↓  ↑

[Primeira Parte] 

[Tab - Primeira Parte]

Parte 1 de 4
   Ab               D#
E|------------------------------------------|
B|-x-1--1-1-1-1-1-x-8-8-9--8-9--8-----------|
G|-x-1--1-1-1-1-1-x-8-8-8--8-8--8-----------|
D|-x-1--1-3-1-3-1-x-8-8-10-8-10-8-----------| (2x)
A|-x----------------------------------------|
E|------------------------------------------|
   ↓ ↓  ↑ ↓ ↑ ↓ ↑ ↓ ↓ ↑ ↓  ↑ ↓  ↑

Parte 2 de 4
   C#               D#
E|------------------------------------------|
B|-x-6-6-7-6-7-6--x-8-8-9--8-9--8-----------|
G|-x-6-6-6-6-6-6--x-8-8-8--8-8--8-----------|
D|-x-6-6-8-6-8-6--x-8-8-10-8-10-8-----------|
A|------------------------------------------|
E|------------------------------------------|
 ↓ ↓ ↑ ↓ ↑ ↓ ↑  ↓ ↓ ↑ ↓  ↑ ↓  ↑

Parte 3 de 4
 C#
E|------------------------------------------|
B|-6h7-6h7-6--6-7-6-7--6--------------------|
G|-6-------6--6-6-6-6--6--------------------|
D|-6h8-6h8-6--6-8-6-8--6--------------------|
A|------------------------------------------|
E|------------------------------------------|
   ↓   ↓   ↓  ↑ ↓ ↑ ↓  ↑

Parte 4 de 4
   E5               F#5
E|------------------------------------------|
B|-5--5--5-5---5----7--7-7-7-7--------------|
G|-4--4--4-4---4----6--6-6-6-6--------------|
D|-2--2--2-2---2----4--4-4-4-4--------------|
A|------------------------------------------|
E|------------------------------------------|
   ↓  ↓  ↑ ↓   ↓    ↑  ↓ ↑ ↓ ↓

Ab                    D#
   You show us everything you got
Ab                          D#
   You keep dancin'and the room gets hot
C#               D#                    C#
   You drive us wild we'll drive you crazy
Ab                        D#
   And you say you wanna go for a spin
Ab                               D#
   The party's just begun we'll let you in
C#               D#                    C#
   You drive us wild we'll drive you crazy
E5                       F#5
   You keep on shoutin' you keep on shoutin'

[Refrão] 

[Tab - Refrão]

Parte 1 de 3
   Ab  C#             D#
E|------------------------------------------|
B|-1---X-6--6-7-6-7-6-X-8--8-9--8-9--8------|
G|-1---X-6--6-6-6-6-6-X-8--8-8--8-8--8------|
D|-1---X-6--6-8-6-8-6-X-8--8-10-8-10-8------| (2x)
A|------------------------------------------|
E|------------------------------------------|
       ↓ ↓  ↑ ↓ ↑ ↓ ↑ ↓ ↓  ↑ ↓  ↑ ↓  ↑

Parte 2 de 3
   Ab 
E|------------------------------------------|
B|-1----------------------------------------|
G|-1----------------------------------------|
D|-1----------------------------------------|
A|------------------------------------------|
E|------------------------------------------|
   ↓
   
Parte 3 de 3
   C#
E|------------------------------------------|
B|-6h7-6h7-6--6-7-6-7--6--------------------|
G|-6-------6--6-6-6-6--6--------------------|
D|-6h8-6h8-6--6-8-6-8--6--------------------|
A|------------------------------------------|
E|------------------------------------------|
   ↓   ↓   ↓  ↑ ↓ ↑ ↓  ↑

Ab                         C#
I wanna rock and roll all night
D#
   And party everyday
Ab                         C#
I wanna rock and roll all night
D#
   And party everyday
Ab
I wanna rock and roll all night

And party everyday

I wanna rock and roll all night

And party everyday

( C# )

[Primeira Parte] 

Ab                            D#
   You keep sayin' you'll be mine for a while
Ab                             D#
   You're looking fancy and I like your style
C#               D#                    C#
   You drive us wild we'll drive you crazy

Ab                        D#
   And you show us everything you got
Ab                        D#
   And baby baby that's quite a lot
C#               D#                    C#
   You drive us wild we'll drive you crazy
E5                       F#5
   You keep on shoutin' you keep on shoutin'

[Refrão] 

Ab                         C#
I wanna rock and roll all night
D#
   And party everyday
Ab                         C#
I wanna rock and roll all night
D#
   And party everyday
Ab
I wanna rock and roll all night

And party everyday

I wanna rock and roll all night

And party everyday

( C# )

[Tab - Solo]

E|--3/4-4-4------4------4------4------4------4------4-|
B|--3/4-4-4------4------4------4------4------4------4-|
G|----------6b-6---6b-6---6b-6---6b-6---6b-6---6b-6---|
D|----------------------------------------------------|
A|----------------------------------------------------|
E|----------------------------------------------------|

E|------4-7p4-----------------------------------------|
B|------4-----7p4------------------------6b-4---------|
G|-6b-6-----------6p4h6p4---6b-4h6p4---4-6b-4h6p4-----|
D|-----------------------------------6------------6---|
A|----------------------------------------------------|
E|----------------------------------------------------|

E|----------------------------------------------------|
B|--4h6p4-6b--6-4h6p4---4h6---------------------------|
G|--4h6p4-6b--6-4h6p4---4h6b/-------------------------|
D|--------------------6-------------------------------|
A|----------------------------------------------------|
E|----------------------------------------------------|

E|----------------------------------------------------|
B|-6h7-6h7-6--6-7-6-7--6------------------------------|
G|-6-------6--6-6-6-6--6------------------------------|
D|-6h8-6h8-6--6-8-6-8--6------------------------------|
A|----------------------------------------------------|
E|----------------------------------------------------|

E|----------16-------16----------16-------16----------|
B|----------16-------16----------16-------16----------|
G|-18b20-20----18b20----18b20-20----18b20-------------|
D|----------------------------------------------------|
A|----------------------------------------------------|
E|----------------------------------------------------|

E|----------16-------16-16----------------------------|
B|----------16-------16----19p16----16-19p16h19p16----|
G|-18b20-20----18b20-------------18----------------18-|
D|----------------------------------------------------|
A|----------------------------------------------------|
E|----------------------------------------------------|

E|----------------------------------------------------|
B|----16h19p16h19p16----16h19p16----16----16----------|
G|-18----------------18----------18----18-------------|
D|----------------------------------------------------|
A|----------------------------------------------------|
E|----------------------------------------------------|

E|-19b21--19~-----------------19----------------------|
B|------------16-19p16--------------------------------|
G|------------18-------18b20-----18b20r18p16----------|
D|-------------------------------------------18-------|
A|----------------------------------------------------|
E|----------------------------------------------------|

E|----------------------------------------------------|
B|-6h7-6h7-6--6-7-6-7--6------------------------------|
G|-6-------6--6-6-6-6--6------------------------------|
D|-6h8-6h8-6--6-8-6-8--6------------------------------|
A|----------------------------------------------------|
E|----------------------------------------------------|

E|----------------------------------------------------|
B|----------------------------------------------------|
G|-12h13-----14----12h13p12h13p12h13------------------|
D|-12h13--14-14-14------------------------------------|
A|----------------------------------------------------|
E|----------------------------------------------------|

E|--------------------18-------16---------------------|
B|--------------------------------14------------------|
G|-15----16-----16/18----18\16----14h15---------------|
D|-16-16-16-16----------------------------------------|
A|----------------------------------------------------|
E|----------------------------------------------------|

E5                       F#5
   You keep on shoutin' you keep on shoutin'

[Refrão] 

Ab                         C#
I wanna rock and roll all night
D#
   And party everyday
Ab                         C#
I wanna rock and roll all night
D#
   And party everyday
Ab
I wanna rock and roll all night

And party everyday

I wanna rock and roll all night

And party everyday

[Final] C#  E5  F#5  Ab5

   C#
E|------------------------------------------|
B|-6h7-6h7-6--6-7-6-7--6--------------------|
G|-6-------6--6-6-6-6--6--------------------|
D|-6h8-6h8-6--6-8-6-8--6--------------------|
A|------------------------------------------|
E|------------------------------------------|
   ↓   ↓   ↓  ↑ ↓ ↑ ↓  ↑

   E5               F#5
E|------------------------------------------|
B|-5--5--5-5---5----7--7-7-7-7--------------|
G|-4--4--4-4---4----6--6-6-6-6--------------|
D|-2--2--2-2---2----4--4-4-4-4--------------|
A|------------------------------------------|
E|------------------------------------------|
   ↓  ↓  ↑ ↓   ↓    ↑  ↓ ↑ ↓ ↓

                                Ab
E|------------------------------------------|
B|--6b7r6-4-6-4-----------------------------|
G|--6b7r6-4-6-4-----------------------------|
D|--------------6-4-6-4----------6/---------|
A|----------------------6--------6/---------|
E|------------------------4------4/---------|
00:00 / 00:00
Outros vídeos desta música
Repetir
Outros vídeos desta música
Composição de Gene Simmons / Paul Stanley
Colaboração e revisão:
626.127 exibições
  • Simplificar cifra
    • ½ Tom
    • A
    • Bb
    • B
    • C
    • Db
    • D
    • Eb
    • E
    • F
    • F#
    • G
    • Ab
  • Adicionar à lista

    0 comentários

    Ver todos os comentários

    Entre para oCifra Club PRO

    Tenha acesso a benefícios exclusivos no App e no Site

    • Chega de anúncios

    • Prioridade de compra em lançamentos

    • Mais recursos no app do Afinador

    • Atendimento Prioritário

    • Descontos nos produtos Cifra Club

    • Ajude a produzir mais conteúdo

    00:00 / 00:00
    Capítulos
    • Início
    • Tocando a música
    • Dicas e pedais
    • Acordes da introdução e primeira parte
    • Tocando introdução e primeira parte
    • Ensinando introdução - Riff 1
    • Ensinando introdução - Riff 2
    • Ensinando Primeira parte (Parte 1 - 3)
    • Ensinando Primeira parte (Parte 4)
    • Acordes do refrão
    • Tocando refrão
    • Ensinando ritmo do refrão (Parte 1 - 3)
    • Tocando trecho (repetição)
    • Ensinando solo (Parte 1)
    • Ensinando solo (Parte 2)
    • Ensinando solo (Parte 3)
    • Ensinando solo (Parte 4)
    • Ensinando solo (Parte 5)
    • Ensinando solo (Parte 6)
    • Ensinando solo (Parte 7)
    • Ensinando solo (Parte 8)
    • Ensinando solo (Parte 9)
    • Ensinando solo (Parte final)
    • Encerramento

    Cifra Club Pro

    Aproveite o Cifra Club com benefícios exclusivos e sem anúncios
    Cifra Club Pro
    Aproveite o Cifra Club com benefícios exclusivos e sem anúncios
    OK