Cifra Club

Aprenda

Ninguém Me Ensinou

Lagum

Cifra: Principal (violão e guitarra)
tom: G
[Primeira Parte]

A vida é boa pacarai

Nem sei por que eu tô chorando

Eu tenho vinte e poucos anos

E não vou parar aqui

          C9             Em 
Eu sinto falta da minha casa
       G7M 
Minha mãe sente minha falta
      C9            Em         G
Tudo bem, essa é a vida que eu escolhi

[Riff 1]

E|------------------------------------------|
B|--5-5---8-7--5-5---8----3h5p3-------------|
G|--5-5---x-x--5-5---x-4--------4-----------|
D|--5-5---5-4--5-5---5----------------------|
A|--3----------3----------------------------|
E|------------------------------------------|

E|-------------5/7--------------------------|
B|--5-5---8-7-------5-5---8-----------------|
G|--5-5---x-x-------5-5---x-4---------------|
D|--5-5---5-4-------5-5---5-----------------|
A|--3---------------3-----------------------|
E|------------------------------------------|

          C9            Em         G7M
Desde pequeno falam que eu sou curioso
                     C9
Quem me viu quem me vê
             Em     G
Fala que eu nunca cresci

           C9
Não tenho medo de errar
 Em   G7M
Só medo de desistir
           C9                Em
Mas tenho vinte e poucos anos
       G
E não vou parar aqui

[Refrão]

  C9       
Quem te ensinou a sonhar?
  Am7                     Em7  
Quem te ensinou a sonhar?
  C9       
Quem te ensinou a sonhar?
  Am7                     G
Quem te ensinou a sonhar?

[Segunda Parte]

        C9                        G7M
Mas se garotos não choram alguém diz o que eu sou?

Nanananão, fica calado

Eu sou o que eu quiser
          C9                 Em      G7M
Eu sou o sol da meia noite e a lua cheia de manhã
        C9              Em      G
Mas me visto de mim mesmo da cabeça aos pés

          C9                     Em  G7M      
Eu tenho vinte e tantos planos pra   antes dos 30 anos
        C9                Em
Alguém diz pra onde vamos
        G
Tenho pressa de existir

       C9              Em
Me disseram, calma mano
      G7M
“Cê” tem tempo sobrando
       C9           Em            G
Pra errar, e eu tô certo que não vou parar aqui

[Refrão]

  C9       
Quem te ensinou a sonhar?
  Am7                     Em7  
Quem te ensinou a sonhar?
  C9       
Quem te ensinou a sonhar?
  Am7                     G
Quem te ensinou a sonhar?

  C9       
Quem te ensinou a sonhar?
  Am7                     Em7  
Quem te ensinou a sonhar?
  C9       
Quem te ensinou a sonhar?
  Am7                     G
Quem te ensinou a sonhar?

[Ponte]

[Riff 2]

E|-----------------------3-2----------------|
B|--3-3-5--3-3-5--3-3-5------5--------------|
G|------------------------------------------|
D|------------------------------------------|
A|------------------------------------------|
E|------------------------------------------|

C9  Am7             Em7
Ôôôôô ninguém me ensinou
         C9  Am7      G 
Pra onde eu vou, ninguém vai
C9  Am7             Em7
Ôôôôô ninguém me ensinou
         C9  Am7      G 
Pra onde eu vou, ninguém vai

( C9  Am7  Em7 )

[Refrão]

  C9 
Quem te ensinou a sonhar?
  Am7                    
Quem te ensinou a sonhar?
Composição de Francisco Jardim / Jorge / Pedro Calais / Tio Wilson / Zani
Colaboração e revisão:
  • Thiago Almeida
5.223 exibições
    • ½ Tom
    • A
    • Bb
    • B
    • C
    • Db
    • D
    • Eb
    • E
    • F
    • F#
    • G
    • Ab
  • Adicionar à lista

    0 comentários

    Ver todos os comentários

    Conseguiu tocar?

    11 Tocaram 0 Ainda não

    Grave um vídeo tocando Ninguém Me Ensinou e nos envie!

    00:00 / 00:00
    Outros vídeos desta música
    Repetir Qualidade Automático
    Outros vídeos desta música
    00:00 / 00:00
    Automático

    Cifra Club Pro

    Aproveite o Cifra Club com benefícios exclusivos e sem anúncios
    Cifra Club Pro
    Aproveite o Cifra Club com benefícios exclusivos e sem anúncios
    OK