Cifra Club

Seja Feliz

Léo Magalhães

Cifra: Principal (violão e guitarra)
Selo Cifra Club: esta cifra foi revisada para atender aos critérios oficiais da nossa Equipe de Qualidade.
tom: F#
[Intro] F#  C#  D#m  B

   F#                                                       C#          
E|-------------------------18-14--------------------------16-13-|
B|-14-14-14-14-14-14-14-14--------14-14-14-14-14-14-14-14-------|
G|--------------------------------------------------------------|
D|--------------------------------------------------------------|
A|--------------------------------------------------------------|
E|--------------------------------------------------------------|

   D#m                                                B
E|--------------------------14-13-14-13-14-13--------------|
B|-14-14-14-14-14-14-14-14--------------------16-14-16~----|
G|---------------------------------------------------------|
D|---------------------------------------------------------|
A|---------------------------------------------------------|
E|---------------------------------------------------------|

F#
Oi, tudo bem?
    C#              D#m
Como assim? Terminar comigo?
B
É sério?

F#                 C#
Eu vou deixar você ir

    D#m         B
Vai lá seja feliz

F#              C#
Pra mim 'tá tudo bem

    D#m
Tranquilo

         B
Mas já te aviso

[Refrão]

F#
Só não deixa eu ficar bebo

              C#
Se não eu te ligo

          D#m                      B
Esqueço da hora que 'cê terminou comigo

F#
Não deixa eu ficar bebo

              C#
Se não eu te ligo

              D#m                     B
Um bêbado solteiro com saudade é um perigo

   F#                                                       C#          
E|-------------------------18-14--------------------------16-13-|
B|-14-14-14-14-14-14-14-14--------14-14-14-14-14-14-14-14-------|
G|--------------------------------------------------------------|
D|--------------------------------------------------------------|
A|--------------------------------------------------------------|
E|--------------------------------------------------------------|

   D#m                                                B
E|--------------------------14-13-14-13-14-13--------------|
B|-14-14-14-14-14-14-14-14--------------------16-14-16~----|
G|---------------------------------------------------------|
D|---------------------------------------------------------|
A|---------------------------------------------------------|
E|---------------------------------------------------------|

F#
Oi, tudo bem?
    C#              D#m
Como assim? Terminar comigo?
B
É sério?

F#                 C#
Eu vou deixar você ir

    D#m         B
Vai lá seja feliz

F#              C#
Pra mim 'tá tudo bem

    D#m
Tranquilo

         B
Mas já te aviso

[Refrão]

F#
Só não deixa eu ficar bebo

              C#
Se não eu te ligo

          D#m                      B
Esqueço da hora que 'cê terminou comigo


F#
Não deixa eu ficar bebo

              C#
Se não eu te ligo

              D#m                     B
Um bêbado solteiro com saudade é um perigo

[Interludio]
                         D#m                     B                       F#       C#
E|----------------------------------------------------------------------------------18---|
B|/14-12-11h12h11--------14-12-11--12h11---------14-12-11--12h11-------------14----------|
G|----------------13h11------------------13h11-------------------13h11h13/15----13~------|
D|---------------------------------------------------------------------------------------|
A|---------------------------------------------------------------------------------------|
E|---------------------------------------------------------------------------------------|

[Refrão]

F#
Só não deixa eu ficar bebo

              C#
Se não eu te ligo

          D#m                      B
Esqueço da hora que 'cê terminou comigo


F#
Não deixa eu ficar bebo

              C#
Se não eu te ligo

              D#m                     B
Um bêbado solteiro com saudade é um perigo

[Final] F#

                                  F#
E|-------------------------18-14-----------------------------------------|
B|-14-14-14-14-14-14-14-14-------14-14-14-14------19-18-16-14-12h11------|
G|------------------------------------------------------------------11~--|
D|-----------------------------------------------------------------------|
A|-----------------------------------------------------------------------|
E|-----------------------------------------------------------------------|
00:00 / 00:00
Outros vídeos desta música
Repetir
Outros vídeos desta música
735 exibições
    • ½ Tom
    • A
    • Bb
    • B
    • C
    • Db
    • D
    • Eb
    • E
    • F
    • F#
    • G
    • Ab
  • Adicionar à lista

Afinação da cifra

Afinador online

    0 comentários

    Ver todos os comentários

    Entre para o Cifra Club PRO

    Tenha acesso a benefícios exclusivos no App e no Site

    • Chega de anúncios

    • Mais recursos no app do Afinador

    • Atendimento Prioritário

    • Aumente seu limite de lista

    • Ajude a produzir mais conteúdo

    00:00 / 00:00

    Cifra Club Pro

    Aproveite o Cifra Club com benefícios exclusivos e sem anúncios
    Cifra Club Pro
    Aproveite o Cifra Club com benefícios exclusivos e sem anúncios
    OK