Cifra Club

He Barrido El Sol

Los Tres

Cifra: Versão 2 (violão e guitarra)
tom: Em
E|--------------------------------------------------------------|
B|--------------------------------------------------------------|
G|---------0-----0-------0-----0-------0-----0------------------|
D|-------0---3| >0-------0---3>0-------0---3>0--------------------|x2
A|---1| >2-----------1>2-----------1>2-----------2-2-2------------|
E|-3-------------------------------------------3-3-3------------|

e|-----0---3| >0---------------0--------------------------------2-|
B|-2>3---3-----3>0-----3-------3------------------------------1-|
G|-----------------3| >4---3>4-----4-----0----------------------2-|
D|---------------------------------2-3---3| >2>0-----2>0--------0-|
A|---------------------------------------------2| >0-----2>0------|
E|---------------------------------------------------------3----|

El siguiente riff, lo puede tocar una segunda guitarra pa no hacer acordes:

E|--3-----2-----0~~-----2-----0-----2~~-----0-------------------|
B|------0-----0-----0-------1---1---------1---1-----------------|
G|----0-----0---------0---2-------2-----2-------2---------------|
D|--------------------------------------------------------------|
A|--------------------------------------------------------------|
E|--------------------------------------------------------------|

E|----3---------2---------3----------7---------7----------7-----3|
B|---0--0-----0---0-----1---1------0---0-----0--0-------0---0---3|
G|--0----0---2-----2--3-------3--7-------7--6----6-----5-----5--4|
D|----------------------------------------------------0---------5|
A|---------2---------3---------------------0--------------------5|
E|0-----------------------------0-------------------------------3|


Intro : G - D7 - G - D7

G D7
He barrido el sol de este lugar

G D7
arrastre el calor del basural

Em* B C E7*
que brillaba sobre ti

A7 D7* G
no se si fue tan asi

G D7
Con mi voz de plata hare temblar
G D7 Em
romper los cristales llorar esperar

B C E7*
y en tu cama brillara
A7 D7* G
el sol que no volvera


C Bm Em*
No es tan facil ser feliz

C Bm D
cuando opacaste el barniz

F Em
que pintaste verde azul y gris

F Em
que quitaste a espaldas de mi

F Em D7
que pintaste verde

x2

Solo Alvaro Henriquez

E|------0------0-------5------5---|
B|--------3------3-------7----5---|
G|--3| >4-----4~-----5>7-----7--7---|
D|--------------------------------| x2
A|--------------------------------|
E|--------------------------------|

E|-------0--0~---0------7-------8-7-------10-8-----------10-14-|
B|-------12-10~--10-------8---------7----------8------12-------|
G|-10| >11---------11---------9-8-------8>9--------9>13----------|
D|------------------7| >9----------------------------------------|
A|-------------------------------------------------------------|
E|-------------------------------------------------------------|

E|------------14---10-------------|
B|-10~~| 10-14------10-------------|
G|-----------------11--4-2-0~-----|
D|---------------------4-2-0~-----|
A|--------------------------------|
E|--------------------------------|

Solo Angel Parra (este es del de la versión mtv unplugged)

E|------------------------------------------------------------------|
B|--3-1-0-3-1-0---1-0-----0-----------------------------------------|
G|--------------2-----2-0---2-0---2-0-----0-------------------------|
D|------------------------------4-----4-2---4-2-0-4-2-0---2-0-------|
A|------------------------------------------------------3-----3-2-0-|
E|------------------------------------------------------------------|

E|---------------------0-------------0-2-0--------2-3-2-0-----------|
B|-----------------0-------0---0---0-------3-0-0----------3-1-------|
G|---------0-3-0-3---3---3---3---3----------------------------4-2-0-|
D|-------4----------------------------------------------------------|
A|---1/2------------------------------------------------------------|
E|------------------------------------------------------------------|

E|------------------------------------------------------------------|
B|----------------------------------------------------------------6-|
G|-2-4-2-0------------0-2-----------0-2-3p2p0-3p2p0--/4-------------|
D|---------4-2--0-2-4-----4-2-0-2-4---------------------7-5-4-5-6---|
A|------------------------------------------------------------------|
E|------------------------------------------------------------------|

E|-------5----------------------------------------------------------|
B|---------------8-------7-------5----------8-8---8-8---8---8-------|
G|-7---6---6-5-4---5-4------------------7-9-----9-----9---9---------|
D|---6-----------------7---7-6-5----7/9-----------------------------|
A|------------------------------------------------------------------|
E|------------------------------------------------------------------|

G D7
He barrido el sol de este lugar

G D7
arrastre el calor del basural

Em* B C E7*
que brillaba sobre ti

A7 D7* G
no se si fue tan asi

G D7
Con mi voz de plata hare temblar
G D7 Em
romper los cristales llorar esperar

B C E7*
y en tu cama brillara
A7 D7* G
el sol que no volvera


C Bm Em*
No es tan facil ser feliz

C Bm D
cuando opacaste el barniz

F Em
que pintaste verde azul y gris

F Em
que quitaste a espaldas de mi

F Em
que pintaste verde azul y gris

F Em ......( y se deja sonar el Em)
que quitaste a espaldas de mi

Final :

E|-------------------------------------------------------------|
B|-------------------------------------------------------------|
G|-------------------------------------------------------------|
D|-------------------------------------------------------------| x3
A|-------3-3-3-------3-3-3-2-2--------3-3-3-------3-3-3-2-2----|
E|-1-1-1-------1-1-1---------0--1-1-1-------1-1-1---------0----|

E|---------------------------0~-------|
B|---------------------------0~-------|
G|---------------------------0~-------|
D|---------------------------2~-------|
A|-------3-3-3-------3-3-3-2-2~-------|
E|-1-1-1-------1-1-1---------0~-------|
Composição de Alvaro Henriquez
31 exibições
    • ½ Tom
    • Am
    • Bbm
    • Bm
    • Cm
    • C#m
    • Dm
    • Ebm
    • Em
    • Fm
    • F#m
    • Gm
    • G#m
  • Adicionar à lista

    0 comentários

    Ver todos os comentários

    Conseguiu tocar?

    0 Tocaram 0 Ainda não

    Grave um vídeo tocando He Barrido El Sol e nos envie!

    00:00 / 00:00
    Outros vídeos desta música
    Repetir Qualidade Automático
    Outros vídeos desta música
    00:00 / 00:00
    Automático

    Cifra Club Pro

    Aproveite o Cifra Club com benefícios exclusivos e sem anúncios
    Cifra Club Pro
    Aproveite o Cifra Club com benefícios exclusivos e sem anúncios
    OK