Cifra Club

Aprenda

Girassóis

Mallu Magalhães

Cifra: Principal (violão e guitarra)
Quer fazer aulas de música com a gente? Responda essas perguntas
e nos ajude nesse projeto! →
tom: G
          3x
e|---------|------------------
B|---------|------------------
G|-0-------|-----0-2-2/4-2-0--
D|---4-2-0-|-0h2--------------
A|---------|------------------
E|---------|------------------

 Abra a janela deixe o sol entrar que
e|----------------------------
B|----------------------------
G|-----2----------------------
D|-2--------5-----------------
A|----------------3-----------
E|----------------------------

 Já se fez manhã
e|----------------------------
B|----------------------------
G|----------------------------
D|-------------1--------------
A|--3--2--0-------------------
E|----------3-----------------

e|----------------------------
B|----------------------------
G|-0-------------0-2-2/4-2-0--
D|---4-2-0---0h2--------------
A|----------------------------
E|----------------------------

 Pode a vida ser assim tão bela
e|----------------------------
B|----------------------------
G|-----2----------------------
D|-2--------5-----------------
A|----------------3-----------
E|----------------------------

 Sobre o céu sem sol
e|----------------------------
B|----------------------------
G|----------------------------
D|-------------1--------------
A|--3--2--0-------------------
E|----------3-----------------

 Essa tarde eu quero passear
 Ver os girassóis e o mundo a girar por nós
           3x (canta depois da segunda)
e|---------|------------------
B|---------|------------------
G|-0-------|------------------
D|---4-2-0-|------------------
A|---------|--0---------------
E|---------|-----3--2---------

e|----------------------------
B|----------------------------
G|-0-------------0-2-2/4-2-0--
D|---4-2-0---0h2--------------
A|----------------------------
E|----------------------------

 Sol que me lembra as manhãs de infância
e|----------------------------
B|----------------------------
G|-----2----------------------
D|-2--------5-----------------
A|----------------3-----------
E|----------------------------

 Pegue a minha mão
e|----------------------------
B|----------------------------
G|----------------------------
D|-------------1--------------
A|--3--2--0-------------------
E|----------3-----------------

e|----------------------------
B|----------------------------
G|-0-------------0-2-2/4-2-0--
D|---4-2-0---0h2--------------
A|----------------------------
E|----------------------------

 Diga mentiras por toda manhã mas
e|----------------------------
B|----------------------------
G|-----2----------------------
D|-2--------5-----------------
A|----------------3-----------
E|----------------------------

 Não me diga não... Não... Não...
e|----------------------------
B|----------------------------
G|----------------------------
D|-------------1--------------
A|--3--2--0-------------------
E|----------3-----------------

Essa tarde eu quero passear
 Ver os girassóis e o mundo a girar por nós
           3x (canta depois da segunda)
e|---------|------------------
B|---------|------------------
G|-0-------|------------------
D|---4-2-0-|------------------
A|---------|--0---------------
E|---------|-----3--2---------

e|----------------------------
B|----------------------------
G|----------------------------
D|----------------------------
A|--3--2--0-------------------
E|----------2--3--------------
Composição de Kadu Abecassis
Colaboração e revisão:
  • Felipe Andrade
14.101 exibições
    • ½ Tom
    • A
    • Bb
    • B
    • C
    • Db
    • D
    • Eb
    • E
    • F
    • F#
    • G
    • Ab
  • Adicionar à lista

    0 comentários

    Ver todos os comentários

    Conseguiu tocar?

    0 Tocaram 0 Ainda não

    Grave um vídeo tocando Girassóis e nos envie!

    00:00 / 00:00
    Outros vídeos desta música
    Repetir Qualidade Automático
    Outros vídeos desta música
    00:00 / 00:00
    Automático

    Cifra Club Pro

    Aproveite o Cifra Club com benefícios exclusivos e sem anúncios
    Cifra Club Pro
    Aproveite o Cifra Club com benefícios exclusivos e sem anúncios
    OK