Cifra Club

Aprenda

Casa Pré-fabricada

Marcelo Camelo

Cifra: Ao-vivo-no-theatro-sao-pedro (violão e guitarra)
tom: A
Intro: A7+ Bm7 (3x)
      (A7+ E  A7+ Bm7 )(3x)
      (A7+ E)

A intro é feita da seguinte maneira:

          A7+     Bm7      A7+   Bm7      A7+       Bm7        A7+         E        (2x)
E|-------0-------5-4---0--------5-4---0----0--------5-4-----0-----------------|
B|-------2-------3-3---2-2------3-3---2----2--------3-3-----2----2-0----------|
G|-------1-------4-4---1-1------4-4---1----1--------4-4-----1----1-1----------|
D|-----2----------------------------------------------------------------2--2--|
A|---0---------2-------0------2-------0------0---2----------0----------2--2---|
E|-----------------------0---------------0---------------------0--------------|

No final da segunda passagem da intro temos
o seguinte acréscimo ao final do acorde Bm7:

E|-0-2-0----------------|
B|-------0-2------------|
G|----------------7-----|
D|----------------6-----|
A|-----------2~7--7-----|
E|----------------------|

A7+      Bm7    A7+   Bm7    Dm   E      A7+
Abre os teus armários eu estou a te esperar,
      Bm7     E     F#m             Bm7       E
Para ver deitar o sol   sobre os teus braços, castos
A7+     Bm7    A7+  Bm      Dm      E     A7+
Cobre a culpa vã,    até amanhã eu vou ficar,
     Bm7     E    F#m        Bm7   E
E fazer do teu sorriso  um abrigo

F#m            C#m7          Bm7     E
Canta que é no canto que eu vou chegar
F#m            C#m7            Bm7      E
Canta o teu encanto que é pra me encantar
F#m          C#m7    Bm7             E           A7+
Canta para mim,    qualquer coisa assim sobre você
      Bm7      E     A7+   Bm7        E
Que explique a minha paz, tristeza nunca

A7+       Bm7     A7+  Bm7      Dm       E    A7+
Mais vale o meu pranto que este canto em solidão,
      Bm7       E    F#m          Bm7       E
Nesta espera o mundo gira em linhas tortas
A7+    Bm7   A7+   Bm7    Dm  E      A7+
Abre essa janela,   Primavera quer entrar
     Bm7      E    F#m      Bm7        E
Pra fazer da nossa voz uma só nota

F#m            C#m7          Bm7      E
Canto que é de canto que eu vou chegar,
F#m             C#m7             Bm7      E
Canto e toco um tanto que é pra te encantar
F#m             C#m7    Bm7            E            A7+
Canto para mim,   qualquer coisa assim sobre você
       Bm7     E     A7+  Bm7        E     (Riff da intro)
Que explique a minha paz, tristeza  nunca mais

A única variação no Riff é na parte final em que fica dessa maneira:

E|-0-2-0---------------|
B|-------0-2-----------|
G|---------------------|
D|---------------------|
A|-----------2~7-------|
E|---------------------|
Composição de Marcelo Camelo
Colaboração e revisão:
  • Guilherme Coppola
3.753 exibições
    • ½ Tom
    • A
    • Bb
    • B
    • C
    • Db
    • D
    • Eb
    • E
    • F
    • F#
    • G
    • Ab
  • Adicionar à lista

    0 comentários

    Ver todos os comentários

    Conseguiu tocar?

    1 Tocaram 0 Ainda não

    Grave um vídeo tocando Casa Pré-fabricada e nos envie!

    00:00 / 00:00
    Outros vídeos desta música
    Repetir Qualidade Automático
    Outros vídeos desta música
    00:00 / 00:00
    Automático

    Cifra Club Pro

    Aproveite o Cifra Club com benefícios exclusivos e sem anúncios
    Cifra Club Pro
    Aproveite o Cifra Club com benefícios exclusivos e sem anúncios
    OK