Cifra Club

Amor de Índio

Maria Gadú

Cifra: Principal
exibições 87.129
Tom: G
[Intro]

       G                    C
E|--3---2--0-----------------------------|
B|--3---------2---2----------------------|
G|------------------0----0---2---2/4--4--|
D|-----------------------2---------------|
A|-----------------------3--3--3------3--|
E|--3--3--3--3---3-----------------------|

     G                  C
E|--2---3-----2---3----------------------|
B|--3------3--3--------------------------|
G|--0---------0--------0---2---2/4--2----|
D|---------------------2-----------------|
A|---------------------3--3---3-----3----|
E|--3--3--3---3--3-----------------------|

 G                 C9
Tudo o que move é sagrado

E|--0------------------------------------|
B|-----3--1--0---------------------------|
G|--------------2--0---------------------|
D|---------------------------------------|
A|---------------------------------------|
E|---------------------------------------|

                G
E remove as montanhas
               C9
Com todo o cuidado, meu amor
    Bm7
Enquanto a chama arder
      C9
Todo dia te ver passar
 G                 C9
Tudo viver ao teu lado

E|--0-----------------------------------|
B|-----3--1--0--------------------------|
G|--------------2--0--------------------|
D|--------------------------------------|
A|--------------------------------------|
E|--------------------------------------|
                G
Com o arco da promessa
            C9
Do azul pintado pra durar
  Bm7
Abelha fazendo mel
        C9
Vale o tempo que não voou
      Bm7
A estrela caiu do céu
   C9
O pedido que se pensou
   Em7
O destino que se cumpriu
    Bm7
De sentir seu calor e ser todo

E|--2----0---2---3---2---3-----2-----0----------|
B|--3---3---3---3---3---3----3---3--------------|
G|--0--0---0---0---0---0-----------0------------|
D|----------------------------------------------|
A|--3------------------------------------3-2----|
E|-------------------------------------------0--|

      Em7
Todo dia é de viver
      Bm7             C9-  C9  C9-  C9
Para ser o que for e ser tudo

( G  C9  G  C9 )

 G                C9
Sim, todo amor é sagrado
                 G
E o fruto do trabalho
            C9
É mais que sagrado, meu amor
   Bm7
A massa que faz o pão
        C9
Vale a luz do teu suor
 G                   C9
Lembra que o sono é sagrado
                      G
E alimenta de horizontes
             C9
O tempo acordado de viver

      Bm7
No inverno te proteger
      C9
No verão sair pra pescar
      Bm7
No outono te conhecer
      C9
Primavera poder gostar
   Em7
No estio me derreter
     Bm7                 C9
Pra na chuva dançar e andar junto

      Em7
O destino que se cumpriu
       Bm7                 C9-  C9  C9- C9
De sentir teu calor e ser tudo

 G                C9
Sim, todo amor é sagrado
                 G9
E o fruto do trabalho
Acordes para:
    Colaboração e revisão:
    • Marcos Paulo
    • marcio
    • Laís Alves

    0 comentários

      mostrar mais comentários

      Conseguiu tocar?

      12tocaram0ainda não

      Grave um vídeo tocando Amor de Índio e mande pra gente!

      00:00 / 00:00
      outros vídeos desta música
      repetirqualidadeautomática
      Outro vídeos desta música
        00:00 / 00:00
        automática
        OK