Cifra Club

Aprenda

Mario Theme

Mario Bros

Cifra: Versão 3 (violão e guitarra)
tom: G
E|--0-0-0---0-3-----|
B|--------1---------|
G|---------------0--|
D|------------------|
A|------------------|
E|------------------|

E|-----------------------0-3-5--1-3-0--------|
B|--1----------0----------------------1-3-0--|
G|-----0-----2---3-2---0---------------------|   (2x)
D|--------2----------------------------------|
A|-------------------------------------------|
E|-------------------------------------------|

E|--3-2-1---0---------------3-2-1---0--8-8-8---3-2-1---0-----------------------|
B|--------4-------1---1-3---------4------------------4-------1---1-3----4-3-1--|
G|------------1-2---2------------------------------------1-2---2---------------|   (2x)
D|-----------------------------------------------------------------------------|
A|-----------------------------------------------------------------------------|
E|-----------------------------------------------------------------------------|

E|------------0--------------------0----------------0--------|
B|--1-1-1-1-3---1--------1-1-1-1-3--------1-1-1-1-3---1------|
G|----------------2-0-----------------------------------2-0--|
D|-----------------------------------------------------------|
A|-----------------------------------------------------------|
E|-----------------------------------------------------------|

E|--0-0-0---0-3----|
B|--------1--------|
G|--------------0--|
D|-----------------|
A|-----------------|
E|-----------------|

E|-----------------------0-3-5--1-3-0--------|
B|--1----------0----------------------1-3-0--|
G|-----0-----2---3-2---0---------------------|   (2x)
D|--------2----------------------------------|
A|-------------------------------------------|
E|-------------------------------------------|

E|--0-----------1-1-------5-5-5-3-1-0----------0-----------1-1-------1-1-1-0-------------|
B|----1-----------------0-------------1----------1-----------------0---------3-1---------|
G|------0--1--2-----2--------------------2-0-------0--1--2-----2-------------------------|   (2x)
D|-------------------------------------------------------------------------------3--3----|
A|------------------------------------------------------------------------------------4--|
E|---------------------------------------------------------------------------------------|

E|------------0--------------------0--------------0--------|
B|--1-1-1-1-3---1--------1-1-1-1-3------1-1-1-1-3---1------|
G|----------------2-0---------------------------------2-0--|
D|---------------------------------------------------------|
A|---------------------------------------------------------|
E|---------------------------------------------------------|

E|--0-0-0---0-3-----|
B|--------1---------|
G|---------------0--|
D|------------------|
A|------------------|
E|------------------|

E|--0-----------1-1-------5-5-5-3-1-0----------0-----------1-1-------1-1-1-0-------------|
B|----1-----------------0-------------1----------1-----------------0---------3-1---------|
G|------0--1--2-----2--------------------2-0-------0--1--2-----2-------------------------|
D|-------------------------------------------------------------------------------3--3----|
A|------------------------------------------------------------------------------------4--|
E|---------------------------------------------------------------------------------------|

E|-----------------------0-3-5--1-3-0--------|
B|--1----------0----------------------1-3-0--|
G|-----0-----2---3-2---0---------------------|   (2x)
D|--------2----------------------------------|
A|-------------------------------------------|
E|-------------------------------------------|

E|--3-2-1---0---------------3-2-1---0--8-8-8----3-2-1---0----------------------|
B|--------4-------1---1-3---------4-------------------4-------1---1-3---4-3-1--|
G|------------1-2---2-------------------------------------1-2---2--------------|   (2x)
D|-----------------------------------------------------------------------------|
A|-----------------------------------------------------------------------------|
E|-----------------------------------------------------------------------------|

E|------------0--------------------0--|
B|--1-1-1-1-3---1--------1-1-1-1-3----|
G|----------------2-0-----------------|
D|------------------------------------|
A|------------------------------------|
E|------------------------------------|

Compositor não encontrado.
Colaboração e revisão:
  • Lucas
8.926 exibições
    • ½ Tom
    • A
    • Bb
    • B
    • C
    • Db
    • D
    • Eb
    • E
    • F
    • F#
    • G
    • Ab
  • Adicionar à lista

    0 comentários

    Ver todos os comentários

    Conseguiu tocar?

    18 Tocaram 0 Ainda não

    Grave um vídeo tocando Mario Theme e nos envie!

    00:00 / 00:00
    Outros vídeos desta música
    Repetir Qualidade Automático
    Outros vídeos desta música
    00:00 / 00:00
    Automático

    Cifra Club Pro

    Aproveite o Cifra Club com benefícios exclusivos e sem anúncios
    Cifra Club Pro
    Aproveite o Cifra Club com benefícios exclusivos e sem anúncios
    OK