Cifra Club

Sunday Morning

Maroon 5

Tab de baixo: Principal
Selo Cifra Club: esta cifra foi revisada para atender aos critérios oficiais da nossa Equipe de Qualidade.
[Primeira Parte]

G|----------------------------------------------|
D|------------5-5----7-5-7----------------------|
A|----3-3---x------x-------x--------------------|
E|--x-------------------------------------------|
B|----------------------------------------------|

G|----------------------------------------------|
D|----------------------------------------------|
A|--5-5---x-------2--x-3-3---x-5-5--x-7-7--x----|
E|----------3-3---------------------------------|
B|----------------------------------------------|

G|----------------------------------------------|
D|--------------------------5---7--5------------|
A|--5-5---x---------3-3---x---x-------7---------|
E|----------3-3---x-----------------------------|
B|----------------------------------------------|

G|----------------------------------------------|
D|------------------------------------5-5-------|
A|--5-5---x-------2--x-3-3---x-7-7--x-----------|
E|----------3-3---------------------------------|
B|----------------------------------------------|

G|----------------------------------------------|
D|---------------------------------2-x-3--------|
A|--5-5---x---------3-3---x-3-3--x--------------|
E|----------3-3---x-----------------------------|
B|----------------------------------------------|

G|----------------------------------------------|
D|--------------------------5---7--5------------|
A|--5-5---x---------3-3---x---x-------7---------|
E|----------3-3---x-----------------------------|
B|----------------------------------------------|

G|----------------------------------------------|
D|--------------------------2---3--5--3---------|
A|--5-5-------------3-3---x---x-----------------|
E|----------3-3---x-----------------------------|
B|----------------------------------------------|

G|----------------------------------------------|
D|------------------------------5--7-5----------|
A|--5-5--------------3-3---5/7---------7-x------|
E|----------3-3----x----------------------------|
B|----------------------------------------------|

[Refrão]

G|----------------------------------------------|
D|---------------------------------5------------|
A|--5-5-------------3-3---x-5-x-7-----7-x-------|
E|----------3-3---x-----------------------------|
B|----------------------------------------------|

G|----------------------------------------------|
D|---------------------------------5------------|
A|--5-5---x---------3-3---x-5-x-7-----7-x-------|
E|----------3-3---x-----------------------------|
B|----------------------------------------------|

G|----------------------------------------------|
D|--------------------------2---3--5--3---------|
A|--5-5---x---------3-3---x---x-----------------|
E|----------3-3---x-----------------------------|
B|----------------------------------------------|

G|----------------------------------------------|
D|--------3-----------5-------------------------|
A|--5-5------5--------------3-3-----------------|
E|--------------3-3-------x---------------------|
B|----------------------------------------------|

[Segunda Parte]

G|----------------------------------------------|
D|---------------------------------2-2----3-3---|
A|--5----x-5-5---x---------3-3---x------x------x|
E|-----------------3-3---x----------------------|
B|----------------------------------------------|

G|----------------------------------------------|
D|---------------------------------5-5----------|
A|--5-5---x---------3-3---x-7-7--x--------------|
E|----------3-3---x-----------------------------|
B|----------------------------------------------|

G|----------------------------------------------|
D|----------------------------------------------|
A|--5-5---x-------------------------------------|
E|----------3-3-------------0--1--3-------------|
B|------------------1-1-------------------------|

[Refrão]

G|----------------------------------------------|
D|--------------------------2---3--5--3---------|
A|--5-5---x---------3-3---x---x-----------------|
E|----------3-3---x-----------------------------|
B|----------------------------------------------|

G|----------------------------------------------|
D|---------------------------------5--7---------|
A|--5-5---x---------3-3---x-5-x-7---------------|
E|----------3-3---x-----------------------------|
B|----------------------------------------------|

G|----------------------------------------------|
D|------------------------2--3---5--3--2--------|
A|--5-5-------------3-3--------x----------3-----|
E|----------3-3---x-----------------------------|
B|----------------------------------------------|

G|----------------------------------------------|
D|----------------------------------------------|
A|--5-5---x-------------------------------------|
E|----------3-3---------------------------------|
B|----------------------------------------------|

[Ponte]

G|----------------------------------------------|
D|-----1-2--------------------------------------|
A|-3---------2-1-0---2-3----2-3----2-3----------|
E|-----------------------3------2------1---1-3--|
B|----------------------------------------------|

G|----------------------------------------------|
D|----------------------------------------------|
A|-----------2-1-0---2-3----2-3----2-3----------|
E|-----------------------3------2------1---1-3--|
B|-1---4-5--------------------------------------|

G|----------------------------------------------|
D|----------------------------------------------|
A|----------------------------------------------|
E|----------------------------------------------|
B|--1--------2----------------------------------|

[Terceira Parte]

G|----------------------------------------------|
D|--------------------------2---3--5--3---------|
A|--5-5---x---------3-3---x---x---------x-------|
E|----------3-3---x-----------------------------|
B|----------------------------------------------|

G|----------------------------------------------|
D|-----------------------------5----7-5---------|
A|--5-5---x----------3-3---5/7----x-----7-x-----|
E|----------3-3----x----------------------------|
B|----------------------------------------------|

G|----------------------------------------------|
D|-----------------------------5---7-5----5-----|
A|--5-5---x----------3-3---5/7---x-----7-----7-x|
E|----------3-3----x----------------------------|
B|----------------------------------------------|

G|----------------------------------------------|
D|-------------------------2-2----3-3----5-5----|
A|--5-5---x---------3-3--x------x------x--------|
E|----------3-3---x-----------------------------|
B|----------------------------------------------|

[Refrão]

G|----------------------------------------------|
D|--------------------------2---3--5--3---------|
A|--5-5-------------3-3---x---x---------x-------|
E|----------3-3---x-----------------------------|
B|----------------------------------------------|

G|----------------------------------------------|
D|--------------------------2---3--5--3---------|
A|--5-5---x---------3-3---x---x---------x-------|
E|----------3-3---x-----------------------------|
B|----------------------------------------------|

G|----------------------------------------------|
D|-------------------------2-2----3-3----5-3----|
A|--5-5---x---------3-3--x------x------x-----5--|
E|----------3-3---x-----------------------------|
B|----------------------------------------------|

G|-------------------------------5--7-5---------|
D|--------3-------------5----5/7--------7--5----|
A|--5-5------5------2-5----3------------------7-|
E|-------------3--3-----------------------------|
B|----------------------------------------------|

G|----------------------------------------------|
D|--------3---------------------2--3--5--3--2---|
A|--5-5-----5-------2--x-3-3--x----------------3|
E|-------------3-3------------------------------|
B|----------------------------------------------|

G|-----------------------------------2----------|
D|--------3-----------------2--3--5-----5--3--2-|
A|--5-5------5--------2--3----------------------|
E|--------------3-3-----------------------------|
B|----------------------------------------------|

G|----------------------------------------------|
D|----------3-----------------2--3--5--3--2-----|
A|--5-5-----------------3-3------------------3--|
E|-------------3-3------------------------------|
B|----------------------------------------------|

G|----------------------------------------------|
D|---------------------------------------7-5----|
A|-5-5------------2--3-3--x-5-5--x-7-7-x-----7-x|
E|-----------3-3--------------------------------|
B|----------------------------------------------|

G|-------------------------------5--7-5---------|
D|--------3-------------5----5/7--------7--5----|
A|--5-5------5------2-5----3------------------7-|
E|-------------3--3-----------------------------|
B|----------------------------------------------|

G|--------------------------------2--4--5--4----|
D|--------------------------2--3----------------|
A|--5-5-------------3-3---x---------------------|
E|----------3-3---x-----------------------------|
B|----------------------------------------------|

G|--5---------------------5---------5--7-5------|
D|---------------------------5--5/7--------7----|
A|----5---x---------3-3-------------------------|
E|----------3-3---x-----------------------------|
B|----------------------------------------------|

G|----------------------------------------------|
D|----------------------------2-x-3-x-5--3--2---|
A|--5-5---x-------2--x-3-3--x------------------3|
E|----------3-3---------------------------------|
B|----------------------------------------------|

G|---------------------------------7-5----5-----|
D|-----3--5--3-------------------------7-----7--|
A|--5--------------2--5----3-3---x--------------|
E|--------------3-------------------------------|
B|----------------------------------------------|

G|----------------------------------------------|
D|----------------------------------------------|
A|--5-5---x---------3-3-------------------------|
E|----------3-3---------------------------------|
B|----------------------------------------------|
Outros vídeos desta música
    7.500 exibições

    Afinação da cifra

    Afinador online

    0 comentários

    Ver todos os comentários

    Entre para o Cifra Club PRO

    Tenha acesso a benefícios exclusivos no App e no Site

    • Chega de anúncios

    • Badges exclusivas

    • Mais recursos no app do Afinador

    • Atendimento Prioritário

    • Aumente seu limite de lista

    • Ajude a produzir mais conteúdo

    Capítulos
    • Apresentação
    • Tocando a Primeira Parte
    • Tocando o Refrão
    • Tocando a Segunda Parte
    • Tocando o Refrão
    • Tocando a Ponte
    • Tocando a Terceira Parte
    • Tocando o Refrão
    • Encerramento

    Cifra Club Pro

    Aproveite o Cifra Club com benefícios exclusivos e sem anúncios
    Cifra Club Pro
    Aproveite o Cifra Club com benefícios exclusivos e sem anúncios
    Ops (: Contenido disponible sólo en portugués.
    OK