Cifra Club

Harder To Breathe

Maroon 5

Cifra: Principal (violão e guitarra)
Tom: F#
verso:
e|--------------------|-----------------------|
b|--------------------|-----------------------|
G|--------------------|-----------------------| 3x
d|--------------------|-------------------2-4-|
a|--2-4----2-4--------|--2-4----2-4---2-4-----|
e|-------------4------|-------------4---------|

e|--------------------|-----------|
b|--------------------|-----------|
g|--------------------|-----------|
d|--------------------|-----------|
a|--2-4----2-4--------|--2-4----2-|
e|-------------4------|-----------|

How dare you say that my behavior is unacceptable
So condescending unnecessarily critical
I have the tendency of getting very physical
So watch your step cause if i do 
You'll need a miracle

You drain me dry and make me wonder why i'm even here
This double vision i was seeing is finally clear
You want to stay but you know very well i want you gone
Not fit to fucking tread the ground i'm walking on

refrão:
   C#5              G#5                 B5            F#5
When it gets cold outside and you got nobody to love
   C#5                         G#5
You'll understand what i mean when i say
                 B5                   F#5
There's no way we're gonna give up
   C#5                        G#5
And like a little girl cries in the face
            B5                       F#5
Of a monster that lives in her dreams
   C#5
Is there anyone out there?

Cause it's getting harder and harder to breathe
   C#5
Is there anyone out there?

Cause it's getting harder and harder to breathe

verso:
e|--------------------|-----------------------|
b|--------------------|-----------------------|
g|--------------------|-----------------------|
d|--------------------|-------------------2-4-|
a|--2-4----2-4--------|--2-4----2-4---2-4-----|
e|-------------4------|-------------4---------|

e|--------------------|-----------|
b|--------------------|-----------|
g|--------------------|-----------|
d|--------------------|-----------|
a|--2-4----2-4--------|--2-4----2-|
e|-------------4------|-----------|

What you are doing is screwing things up inside my head
You should know better 
You never listened to a word i said
Clutching your pillow 
And writhing in a naked sweat
Hoping somebody someday will do you like i did

refrão:
   C#5              G#5                 B5            F#5
When it gets cold outside and you got nobody to love
   C#5                         G#5
You'll understand what i mean when i say
                 B5                   F#5
There's no way we're gonna give up
   C#5                        G#5
And like a little girl cries in the face
            B5                       F#5
Of a monster that lives in her dreams
   C#5
        is there anyone out there?
                           G#5                C#5
Cause it's getting harder and harder to breathe
   C#5
Is there anyone out there?

Cause it's getting harder and harder to breathe

BASE SOLO: (C#5)

(C#5)
Does it kill?
Does it burn?
Is it painful to learn?
That it's me that has all the control

Does it thrill?
Does it sting?
When you feel what i bring
And you wish that you had me to hold

refrão:
   C#5              G#5                 B5            F#5
When it gets cold outside and you got nobody to love
   C#5                         G#5
You'll understand what i mean when i say
                 B5                   F#5
There's no way we're gonna give up
   C#5                        G#5
And like a little girl cries in the face
            B5                       F#5
Of a monster that lives in her dreams
   C#5
        is there anyone out there?
                           G#5                C#5
Cause it's getting harder and harder to breathe
   C#5
Is there anyone out there?

Cause it's getting harder and harder to breathe
   C#5
Is there anyone out there?

Cause it's getting harder and harder to breathe

final:
e|------|
b|------|
g|------|
d|------|
a|--2-4-|
e|------|
exibições 92.805
Acordes para:
    Composição: Adam Levine / Jesse Carmichael Colaboração e revisão:
    • Hans
    • João Filho
    • Vinicius Milhomem

    0 comentários

    mostrar mais comentários

    Conseguiu tocar?

    2 tocaram 0 ainda não

    Grave um vídeo tocando Harder To Breathe e mande pra gente!

    00:00 / 00:00
    outros vídeos desta música
    repetir qualidade Automático
    Outros vídeos desta música
    00:00 / 00:00
    Automático
    OK