Cifra Club

Aprenda

O Que Você Dá Pra Vida

Mato Seco

Tab de baixo: Principal
Intro:
G------------------------
D-------------------------
A--7-----7-7------------
E---------------7-------

Base:
G---------------------------------------------------------------------  \        
D---------------5-4---------------------------------------------------   \
A--7-7--7---7------7---7-6---4----------------------------------------    \
E-----------------------------------7-7--7---3---7-7-7---3--7-7-7-----    \ 
                                                                         /3X                        G------------------------------------------------------------------    /
D---------------5-4-----4------------------------------------------   /
A--7-7--7---7------7-----7-6-4-------------------------------------  / 
E-----------------------------------7-7--7---3---7-7-7---3--7-7-7-- /

Parte que entra o refrão: cobra de vc ha,ha,haha.............
G---------------------------------------------------------------
D---------------5-4----4----------------------------------------
A--7-7--7---7------7----7-6-4--------------4--------------------
E---------------------------------7-7--7----6-4---3-5-----------   
volta para base:

Finalzinho da musica.......

G------------------------------------------
D------------------------------------------
A----------------------2-2--2-4--4-2-------
E---2-2--4-4--2-2-4-4----------------------

G------------------------------------------------------
D-------------------------------------------22224------
A-----------------------2-2--2-4--4-2------------------
E---2-2--4-4--2-2-4-4----------------------------------
Colaboração e revisão:
  • Renato Reis
2.736 exibições

0 comentários

Mostrar mais comentários

Conseguiu tocar?

1 Tocaram 0 Ainda não

Grave um vídeo tocando O Que Você Dá Pra Vida e mande pra gente!

00:00 / 00:00
outros vídeos desta música
repetir qualidade Automático
Outros vídeos desta música
00:00 / 00:00
Automático

Cifra Club Pro

Aproveite o Cifra Club com benefícios exclusivos e sem anúncios
7 dias grátis
Cifra Club Pro
Aproveite o Cifra Club com benefícios exclusivos e sem anúncios
7 dias grátis
OK