Cifra Club

Let Go

Midtown

Tab de baixo: Principal
(INTRO)
G-------------------------------------------
D-------------------------------------------
A-------------------------------------------
E---5-5-5-5---4-4-4-4---7-7-7-7---0-0-0-0--- 3x

G-------------------------------------------
D-------------------------------------------
A-------------------------------------------
E---5-5-5-5---4-4-4-4---7~------------------          

(VERSE)
G-------------------------------------------
D-------------------------------------------
A-------------------------------------------
E---5-5-5-5---4-4-4-4---7-7-7-7---0-0-0-0---         

G-------------------------------------------
D-------------------------------------------
A---------------------------------7-7-7-7---
E---5-5-5-5---4-4-4-4---7-7-7-7-------------         

G-------------------------------------------
D-------------------------------------------
A-------------------------------------------
E---5-5-5-5---4-4-4-4---7-7-7-7---0-0-0-0---         

(END OF VERSE 1)
G-------------------------------------------
D-------------------------------------------
A-------------------------------------------
E---5-5-5-5---4-4-4-4---7~------------------          

(CHORUS)
G--------------------------------------------------------------------
D--------------------------------------------------------------------
A--------------------------------------------------------------------
E---0-0x---7-7x---2-2-2-2---5-5-5-5---0-0-0-0---7-7-7-7---2-2-2-2x---

G-------------------------------------------------------------------------
D-------------------------------------------------------------------------
A-------------------------------------------------------------------------
E---0-0X---7-7X---2-2-2-2---5-5-5-5---9-9-9-9-9-9-9-9---7-7-7-7-7-7-7-7---

(VERSE)
G-------------------------------------------
D-------------------------------------------
A-------------------------------------------
E---5-5-5-5---4-4-4-4---7-7-7-7---0-0-0-0--- 5x      

(END OF VERSE 2)
G-----------------------------------------
D-----------------------------------------
A-----------------------------------------
E---5-5-5-5---4-4-4-4---7-7-7-7-7-7-7-7---   

(CHORUS)
G--------------------------------------------------------------------
D--------------------------------------------------------------------
A--------------------------------------------------------------------
E---0-0x---7-7x---2-2-2-2---5-5-5-5---0-0-0-0---7-7-7-7---2-2-2-2x---

G-------------------------------------------------------------------------
D-------------------------------------------------------------------------
A-------------------------------------------------------------------------
E---0-0X---7-7X---2-2-2-2---5-5-5-5---9-9-9-9-9-9-9-9---7-7-7-7-7-7-7-7---       

(INSTRUMENTAL/BRIDGE THING)
G-------------------------------------------
D-------------------------------------------
A-------------------------------------------
E---5-5-5-5---4-4-4-4---7X-7X-7---0-0-0-0--- 3x

G---------------------------------------------------------
D---------------------------------------------------------
A---------------------------------------------------------
E---5-5-5-5---4-4-4-4---7-7-7-7-7-7-7-7-7-7-7-7-7-7-7-7---

VERSE (GUITAR ONLY DURING 1ST HALF)
G-------------------------------------------
D-------------------------------------------
A-------------------------------------------
E---5-5-5-5---4-4-4-4---7-7-7-7---0-0-0-0--- 3x


(END OF VERSE 3)
G---------------------------------------------------------
D---------------------------------------------------------
A---------------------------------------------------------
E---5-5-5-5---4-4-4-4---7-7-7-7-7-7-7-7-7-7-7-7-7-7-7-7---

(CHORUS)
G--------------------------------------------------------
D--------------------------------------------------------
A--------------------------------------------------------
E---0-0x---0-0x---0~---0-0-0-0-0-0-0-0-0-0-0-0-0-0-0-0---

G--------------------------------------------------------------------
D--------------------------------------------------------------------
A--------------------------------------------------------------------
E---0-0x---7-7x---2-2-2-2---5-5-5-5---0-0-0-0---7-7-7-7---2-2-2-2x---

G-----------------------------------------------------------------------------
D-----------------------------------------------------------------------------
A-----------------------------------------------------------------------------
E---0-0x---7-7x---2-2-2-2---5-5-5-5---0-0-0-0---7-7-7-7---2-2-2-2---5-5-5-5---

(OUTRO)
G-------------------------------------------
D-------------------------------------------
A-------------------------------------------
E---0-0-0-0---7-7-7-7---2-2-2-2---5-5-5-5--- 9x
Composição de Midtown
Colaboração e revisão:
  • Banda Beginner
19 exibições

0 comentários

Ver todos os comentários

Conseguiu tocar?

0 Tocaram 0 Ainda não

Grave um vídeo tocando Let Go e nos envie!

00:00 / 00:00
Outros vídeos desta música
Repetir Qualidade Automático
Outros vídeos desta música
00:00 / 00:00
Automático

Cifra Club Pro

Aproveite o Cifra Club com benefícios exclusivos e sem anúncios
Cifra Club Pro
Aproveite o Cifra Club com benefícios exclusivos e sem anúncios
OK