Cifra Club

Blown To Pieces

Mortician

Cifra: Principal (violão e guitarra)
Selo Cifra Club: esta cifra foi revisada para atender aos critérios oficiais da nossa Equipe de Qualidade.
tom: E
Riff 01 x2
E|-----------|
B|-----------|
G|-----------|
D|-----------|
A|4--7--4--6-|
E|2--5--2--4-|

Transition
E|------|
B|------|
G|------|
D|------|
A|------|
E|-12\--|

Riff 02 x4
E|------------------|
B|------------------|
G|------------------|
D|------------------|
A|------------------|
E|2"---5"---2"---4"-|

Then repeat riff 01 x2
(The second time let ring the 4/6 chord)

Riff 03 x5
E|-------------------------------|
B|-------------------------------|
G|-------------------------------|
D|-------------------------------|
A|5-4-6-5-3-4-5-4-6-5-3-4-3------|
E|3-2-4-3-1-2-3-2-4-3-1-2-1--12\-|
  . . . . . . . . . . . . .

Then repeat Riff 01 x2
Then repeat Transition
Then repeat Riff 02 x4
Then repeat Riff 01 x2
Outros vídeos desta música
    3 exibições
      • ½ Tom
      • A
      • Bb
      • B
      • C
      • Db
      • D
      • Eb
      • E
      • F
      • F#
      • G
      • Ab
    • Adicionar à lista

    Afinação da cifra

    Afinador online

      0 comentários

      Ver todos os comentários

      Entre para o Cifra Club PRO

      Tenha acesso a benefícios exclusivos no App e no Site

      • Chega de anúncios

      • Mais recursos no app do Afinador

      • Atendimento Prioritário

      • Aumente seu limite de lista

      • Ajude a produzir mais conteúdo

      Cifra Club Pro

      Aproveite o Cifra Club com benefícios exclusivos e sem anúncios
      Cifra Club Pro
      Aproveite o Cifra Club com benefícios exclusivos e sem anúncios
      OK