Cifra Club

Mortician

Mortician

Cifra: Principal (violão e guitarra)
Selo Cifra Club: esta cifra foi revisada para atender aos critérios oficiais da nossa Equipe de Qualidade.
tom: G#m
(Bass)
G|-----------|
D|-----------|
A|-----------|
E|-2--3-2--0-| x6

(Guitar)
E|-----------|
B|-----------|
G|-----------|
D|-----------|
A|-4--5-4--2-|
E|-2--3-2--0-| x4

(Bass)
G|--------------|
D|--------------|
A|--------------|
E|-2--3-2--0--2~| x1

(Guitar)
E|--------------|
B|--------------|
G|--------------|
D|--------------|
A|-4--5-4--2--4~|
E|-2--3-2--0--2~| x1

[Verse]

(Bass)
G|--------------------------|
D|--------------------------|
A|--------------------------|
E|-2-2-2-2-2-2-2-2--3--2--0-| x14

(Guitar)
E|--------------------------|
B|--------------------------|
G|--------------------------|
D|--------------------------|
A|--------------------------|
E|-2-2-2-2-2-2-2-2--3--2--0-| x15

[Verse 2]

(Bass)
G|---------------------------------------------------------------|
D|---------------------------------------------------------------|
A|---------------------------------------------------------------|
E|-2-2-2-2-2-2-2-2-2-2-2-2-3--3-3-2-2-2-2-2-2-2-2-2-2-2-2-2--0-0-| x4

(Guitar)
E|---------------------------------------------------------------|
B|---------------------------------------------------------------|
G|---------------------------------------------------------------|
D|---------------------------------------------------------------|
A|-4-4-4-4-4-4-4-4-4-4-4-4-5--5-5-4-4-4-4-4-4-4-4-4-4-4-4-2--2-2-|
E|-2-2-2-2-2-2-2-2-2-2-2-2-3--3-3-2-2-2-2-2-2-2-2-2-2-2-2-0--0-0-| x4

[Verse 3]

(Bass)
G|--------------------------|
D|--------------------------|
A|--------------------------|
E|-2-2-2-2-2-2-2-2--3--2--0-| x6

(Guitar)
E|--------------------------|
B|--------------------------|
G|--------------------------|
D|--------------------------|
A|--------------------------|
E|-2-2-2-2-2-2-2-2--3--2--0-| x6

[Verse 4]

(Bass)
G|---------------------------------------------------------------|
D|---------------------------------------------------------------|
A|---------------------------------------------------------------|
E|-2-2-2-2-2-2-2-2-2-2-2-2-3--3-3-2-2-2-2-2-2-2-2-2-2-2-2-0--0-0-| x10

(Guitar)
E|---------------------------------------------------------------|
B|---------------------------------------------------------------|
G|---------------------------------------------------------------|
D|---------------------------------------------------------------|
A|-4-4-4-4-4-4-4-4-4-4-4-4-5--5-5-4-4-4-4-4-4-4-4-4-4-4-4-2--2-2-|
E|-2-2-2-2-2-2-2-2-2-2-2-2-3--3-3-2-2-2-2-2-2-2-2-2-2-2-2-0--0-0-| x10

[Verse 5]

(Bass)
G|--------------------------|
D|--------------------------|
A|--------------------------|
E|-2-2-2-2-2-2-2-2--3--2--0-| x12

(Guitar)
E|--------------------------|
B|--------------------------|
G|--------------------------|
D|--------------------------|
A|--------------------------|
E|-2-2-2-2-2-2-2-2--3--2--0-| x12

[Outro]

(Bass)
G|-----------------------------|
D|-----------------------------|
A|-----------------------------|
E|-2-2-2-2-2-2-2-2--3--2--0--2-| x1

(Guitar)
E|-----------------------------|
B|-----------------------------|
G|-----------------------------|
D|-----------------------------|
A|---------------------------4-|
E|-2-2-2-2-2-2-2-2--3--2--0--2-| x1
Outros vídeos desta música
    14 exibições
      • ½ Tom
      • Am
      • Bbm
      • Bm
      • Cm
      • C#m
      • Dm
      • Ebm
      • Em
      • Fm
      • F#m
      • Gm
      • G#m
    • Adicionar à lista

    Afinação da cifra

    Afinador online

      0 comentários

      Ver todos os comentários

      Entre para o Cifra Club PRO

      Tenha acesso a benefícios exclusivos no App e no Site

      • Chega de anúncios

      • Mais recursos no app do Afinador

      • Atendimento Prioritário

      • Aumente seu limite de lista

      • Ajude a produzir mais conteúdo

      Cifra Club Pro

      Aproveite o Cifra Club com benefícios exclusivos e sem anúncios
      Cifra Club Pro
      Aproveite o Cifra Club com benefícios exclusivos e sem anúncios
      OK