Cifra Club

Hacked Up For Barbecue

Mortician

Cifra: Principal (violão e guitarra)
Selo Cifra Club: esta cifra foi revisada para atender aos critérios oficiais da nossa Equipe de Qualidade.
tom: Cm
Riff 01 x2
E|--------------------------------|
B|--------------------------------|
G|--------------------------------|
D|--------------------------------|
A|--------3--------4--------6-----|
E|0-0-0-0-1--0-0-0-2--0-0-0-4-3~--|
  . . . .    . . .    . . .

Riff 02 x2
E|------------------------------------------------------|
B|------------------------------------------------------|
G|------------------------------------------------------|
D|------------------------------------------------------|
A|--------3------------6-------------4------------6-----|
E|0-0-0-0-1----0-0-0-0-4-3~--0-0-0-0-2----0-0-0-0-4-3~--|
  . . . .       . . . .      . . . .      . . . .

Then repeat Riff 01 x4
Then repeat Riff 02 x2

Transition
E|----------|
B|----------|
G|---/\-----|
D|--/--\----|
A|-/----\---|
E|0------\--|
(Whammy Bar)

Riff 03 x8
E|--------------------------------|
B|--------------------------------|
G|--------------------------------|
D|--------------------------------|
A|4"--3"----------2"--1"----------|
E|--------4"--3"----------2"--1"--|

Riff 04 x2
E|-------------------------------------------------------------|
B|-------------------------------------------------------------|
G|-------------------------------------------------------------|
D|--------------------------------------------------------4-4-3|
A|--------2"--1"----------2"--1"----------2"--1"----------2-2-1|
E|4"--3"----------4"--3"----------4"--3"----------4"--3"-------|

Then repeat Riff 03 x6

Riff 05 x10
E|------------------------------|
B|------------------------------|
G|------------------------------|
D|------------------------------|
A|---------6--5-----------5--4--|
E|0-0-0-0--4--3--0-0-0-0--3--2--|
  . . . .        . . . .

Riff 06 x3
E|------------------------------|
B|------------------------------|
G|------------------------------|
D|------------------------------|
A|------------------------4--3--|
E|0-0-0-0--3~----0-0-0-0--2--1--|
  . . . .        . . . .

Then repeat Transition
Then repeat Riff 03 x8
Then repeat Riff 05 x5

Final Riff.
E|-----------------------------------|
B|-----------------------------------|
G|-----------------------------------|
D|-----------------------------------|
A|---------6--5----------------------|
E|0-0-0-0--4--3--0-3-0-2-0-3-2-3-2--0|
  . . . .        . . . . . . . . .
Outros vídeos desta música
    14 exibições
      • ½ Tom
      • Am
      • Bbm
      • Bm
      • Cm
      • C#m
      • Dm
      • Ebm
      • Em
      • Fm
      • F#m
      • Gm
      • G#m
    • Adicionar à lista

    Afinação da cifra

    Afinador online

      0 comentários

      Ver todos os comentários

      Entre para o Cifra Club PRO

      Tenha acesso a benefícios exclusivos no App e no Site

      • Chega de anúncios

      • Mais recursos no app do Afinador

      • Atendimento Prioritário

      • Aumente seu limite de lista

      • Ajude a produzir mais conteúdo

      Cifra Club Pro

      Aproveite o Cifra Club com benefícios exclusivos e sem anúncios
      Cifra Club Pro
      Aproveite o Cifra Club com benefícios exclusivos e sem anúncios
      OK