Cifra Club

Brood Of Evil

Mortician

Cifra: Principal (violão e guitarra)
Selo Cifra Club: esta cifra foi revisada para atender aos critérios oficiais da nossa Equipe de Qualidade.
tom: Cm
Riff 01 x4
E|--------------------------------------|
B|--------------------------------------|
G|--------------------------------------|
D|--------------------------------------|
A|2----4----3----5----2----4----3-------|
E|0----2----1----3----0----2----1----4~-|

Riff 02 x5
E|-------------------------------|
B|-------------------------------|
G|-------------------------------|
D|-------------------------------|
A|-------------------------------|
E|0"--2"--1"--3"--0"--2"--1"--4"-|

Riff 03 x4
E|-----------------------|
B|-----------------------|
G|-----------------------|
D|-----------------------|
A|2--4--3--5--2--4--3--6-|
E|0--2--1--3--0--2--1--4-|

Riff 04 x8
E|---------------|
B|---------------|
G|---------------|
D|---------------|
A|1"-------------|
E|----3"--1"--0"-|

Riff 05 x4
E|-------------|
B|-------------|
G|-------------|
D|3-3-2--------|
A|1-1-0--4-3-2-|
E|-------2-1-0-|

Riff 5.1 x4
E|-------------|
B|-------------|
G|-------------|
D|3-3-2--------|
A|1-1-0--4-3-2-|
E|-------2-1-0-|
  . . .  . . .

Then repeat Riff 05 x4
Then repeat Riff 5.1 x4
Then repeat Riff 02 x4
Then repeat Riff 01 x3
Outros vídeos desta música
    5 exibições
      • ½ Tom
      • Am
      • Bbm
      • Bm
      • Cm
      • C#m
      • Dm
      • Ebm
      • Em
      • Fm
      • F#m
      • Gm
      • G#m
    • Adicionar à lista

    Afinação da cifra

    Afinador online

      0 comentários

      Ver todos os comentários

      Entre para o Cifra Club PRO

      Tenha acesso a benefícios exclusivos no App e no Site

      • Chega de anúncios

      • Mais recursos no app do Afinador

      • Atendimento Prioritário

      • Aumente seu limite de lista

      • Ajude a produzir mais conteúdo

      Cifra Club Pro

      Aproveite o Cifra Club com benefícios exclusivos e sem anúncios
      Cifra Club Pro
      Aproveite o Cifra Club com benefícios exclusivos e sem anúncios
      OK