Cifra Club

Marvada Pinga (Zenaide)

Munhoz & Mariano

Cifra: Principal (violão e guitarra)
Tom: Bb (forma dos acordes no tom de G) Capotraste na 3ª casa
G            C            G
Água de cana, alma de satanás,
D                  C                 G
Setenta capeta não faz o que a pinga faz,
      D                  C
Desce pinga o buraco sem fim,
            G                 C
E que não encontre "fígo” nem rim,
 D                       G
Aceita "estâmu”, que é leite.

            D
A "marvada” pinga que corre nas veia,
            G
Dissolve as tripa, sapeca o "estâmu”
               D
E dizima as lumbriga
        C               G
E nesse ponto até que é bão
                                 D
Mas tirando esse ponto a coisa é feia
                           G
Deixa a cara inchada e "vermeia”
              G7                  C
Faz o homem dormir na escada da igreja
                  D          C  G
E não deixa ele entrar de vergonha.

(uaipor quê que "ocê” bebe?)

                      C
É que a Zenaide me largou
                                 G
Não esqueço do cheiro e nem do sabor
                                  D
Não esqueço o dia em que tudo começou
                C                  G
E pra parar com isso eu mergulho na pinga
                   C                      D
E do jeito que eu tô não vai sobrar mais nada
               G
Pra contar história
                   G7                    C
E o pior é que acho que é isso que eu quero,
              D          C  G
Eu troquei a Zenaide por pinga
Solo:
E|--7/8-7-5 --7-7-7--8---8--8--10-10-10--13-13-13-12--12-12--13-13-13--15-15-15-15--|
B|------------8-8-8--10-10-10--12-12-12--15-15-15-13--13-13--15-15-15--17-17-17-17--|
G|----------------------------------------------------------------------------------|   (2x)
D|----------------------------------------------------------------------------------|
A|----------------------------------------------------------------------------------|
E|----------------------------------------------------------------------------------|

E|---15---15------13---13------12---12------10---10--------8------------------------|
B|----------------------------------------------------------------------------------|
G|-----16-----------14------------12----------10-----------9------------------------|
D|----------------------------------------------------------------------------------|
A|----------------------------------------------------------------------------------|
E|----------------------------------------------------------------------------------|
exibições 36.793
Acordes para:
    Colaboração e revisão:
    • Jonas Cervelim

    0 comentários

    mostrar mais comentários

    Conseguiu tocar?

    5 tocaram 0 ainda não

    Grave um vídeo tocando Marvada Pinga (Zenaide) e mande pra gente!

    00:00 / 00:00
    outros vídeos desta música
    repetir qualidade Automático
    Outros vídeos desta música
    00:00 / 00:00
    Automático
    OK