Cifra Club

Longe Daqui (part: Luan Santana)

Munhoz e Mariano

Cifra: Principal (violão e guitarra)
Tom: F# (forma dos acordes no tom de D) Capotraste na 4ª casa
Intro: D Bm  G A
 
               D
E|--3-2--2--0-2--0-2------------------|
B|-------3--3-3--3-3------------------|
G|-------2--2-2--2-2------------------|
D|------------------------------------|
A|------------------------------------|
E|------------------------------------|

                Bm
E|--3-2--2--2-2--2-2------------------|
B|-------3--2-3--2-3------------------|
G|-------4--4-4--4-4------------------|
D|-------4--4-4--4-4------------------|
A|-------2--2-2--2-2------------------|
E|-------2--2-2--2-2------------------|

                G
E|--3-2--3--3-3--3-3------------------|
B|-------3--0-3--0-3------------------|
G|-------0--0-0--0-0------------------|
D|-------0--0-0--0-0------------------|
A|-------3--3-3--3-3------------------|
E|-------2--2-2--2-2------------------|

                A
E|--3-2-------------------------------|
B|-------2----2----2------------------|
G|-------2--2-2--2-2------------------|
D|-------2--2-2--2-2------------------|
A|------------------------------------|
E|------------------------------------|


 D
Tá com vergonha de mim, tá? 
                               D7M
Tá com medo do que pensam de nós? 
 D
Finge que não tem ninguém aqui 
                                 D7M   D7
Fale o que você quiser, quero te ouvir! 

G                                 D
     Até quando você vai tentar negar 
                   Gm
Se enganar, se esconder de si mesma 
D                                               Bm
    Se prefere eu posso inventar um lugar diferente 
                                                G
Onde não há ninguém pra falar mal da vida da gente 
                          
Eu te levo pra gente se amar 
                        Em7
Eu te levo pra gente se amar 
 G               D
Pra bem longe daqui 
            Bm
Agora se preferir 
                         G
Eu te levo pra gente se amar 
                         Em7
Eu te levo pra gente se amar 
 Gm
Pra bem longe
exibições 112.846
Acordes para:

    0 comentários

    mostrar mais comentários

    Conseguiu tocar?

    11 tocaram 0 ainda não

    Grave um vídeo tocando Longe Daqui (part: Luan Santana) e mande pra gente!

    00:00 / 00:00
    outros vídeos desta música
    repetir qualidade Automático
    Outros vídeos desta música
    00:00 / 00:00
    Automático
    OK