Cifra Club

Aprenda

Simple kind of life

No Doubt

Cifra: Principal (violão e guitarra)
tom: C
intro & verse:
        Dm                   Dsus2                  Cadd9                    C
e-----1---1-----1----1---0----0----0----0----0----0----0----0----0----0----0----0--
B----3----3----3----3----3----3----3----3----3----3----3----3----1----1----1----1--
G----2----2----2----2----2----2----2----2----0----0----0----0----0----0----0----0--
D----0----0----0----0----0----0----0----0----2----2----2----2----2----2----2----2--
A-----------------------------------------------3----3----3----3----3----3----3----3--
E----------------------------------------------------------------------------------------

chorus:
   C                           Cadd9                F                                                 C                       Cadd9
e-0----0----0----0----0----0----0----0----1----1----1----1---1----1----1----1---0----0----0----0---0----0----0----0-
B-1----1----1----1---3----3----3----3-----1----1----1----1---1----1----1----1--1----1----1----1---3----3----3----3-
G-0----0----0----0---0----0----0----0----2----2----2----2---2----2----2----2---0----0----0----0---0----0----0----0-
D-2----2----2----2---2----2----2----2----3----3----3----3---3----3----3----3---2----2----2----2---2----2----2----2-
A-3----3----3----3---3----3----3----3----3----3----3----3---3----3----3----3---2----2----2----2---2----2----2----2-
E-------------------------------------------1----1----1----1---1----1----1----1-------------------------------------------

bridge:

Dm    Dsus2   C    Em
Composição de Gwen Stefani
8.807 exibições
    • ½ Tom
    • A
    • Bb
    • B
    • C
    • Db
    • D
    • Eb
    • E
    • F
    • F#
    • G
    • Ab
  • Adicionar à lista

    0 comentários

    Ver todos os comentários

    Conseguiu tocar?

    0 Tocaram 1 Ainda não

    Grave um vídeo tocando Simple kind of life e nos envie!

    00:00 / 00:00
    Outros vídeos desta música
    Repetir Qualidade Automático
    Outros vídeos desta música
    00:00 / 00:00
    Automático

    Cifra Club Pro

    Aproveite o Cifra Club com benefícios exclusivos e sem anúncios
    Cifra Club Pro
    Aproveite o Cifra Club com benefícios exclusivos e sem anúncios
    OK