Cifra Club

Aprenda

Ai,ai Como Eu Me Iludo

O Terno

Cifra: Principal (violão e guitarra)
Tom: G
Intro:
E|---6--- (8x)

Parte A:
  G:
D|--------------------8/10--8-------------------------------------------
A|---6----6--7--8---------------11----11--11--13--6------------6---
E|------------------------------------------------------------------6------

Parte A9:
  G:
D|--------------------8/10--8------------------------------
A|---6----6--7--8---------------11----11--11--13--6---
E:

Parte B:
  G:
D|-----------------6-8-6---6h8-6-----------------------------------------------6-8-6-6h8-6------
A|---4-4-4-4/8--------------------8-6-6-6-6-6-6-8-8-8-8-8-8-4----4/8-----------------------
E:

Riff principal:
G|----------------8h10-8-------8---
D|-----------10-------------10------
A|---8--11---------------------------
E:

Parte C:
  G:
D|-----------------------------------3/13--------13-------------------------------3/13--------13---
A|---3-3-3-3-3-3-3-3-3-3-3-3------------13-------3-3---3-3---3-3---3-3-----------------------
E|---------------------------------------------------------------------------------------------------------

G:
  D:
A|----------------------------------3--3-6-3---8-8---8-8---8-8---8-8-----------3-6--6-----
E|---4-4-4-4-4-4-4-4-4-4-4-4--------------------------------------------4---4--------------
Colaboração e revisão:
  • Valentim Frateschi
1.374 exibições
    • ½ Tom
    • A
    • Bb
    • B
    • C
    • Db
    • D
    • Eb
    • E
    • F
    • F#
    • G
    • Ab
  • Adicionar à lista

    0 comentários

    Mostrar mais comentários

    Conseguiu tocar?

    0 Tocaram 0 Ainda não

    Grave um vídeo tocando Ai,ai Como Eu Me Iludo e mande pra gente!

    00:00 / 00:00
    outros vídeos desta música
    repetir qualidade Automático
    Outros vídeos desta música
    00:00 / 00:00
    Automático

    Cifra Club Pro

    Aproveite o Cifra Club com benefícios exclusivos e sem anúncios
    Cifra Club Pro
    Aproveite o Cifra Club com benefícios exclusivos e sem anúncios
    OK