Cifra Club

Querendo Te Encontrar

Onze:20

Cifra: Principal (violão e guitarra)
exibições 561.908
Tom: Eb (forma dos acordes no tom de D) Capotraste na 1ª casa
Primeira Parte:

1
   p.m.
E|------0---0-0-0---------------------------|
B|------3---3-3-3---------------------------|
G|---2--2---2-2-2---------------------------|
D|-0----0---0-0-0---------------------------|
A|------------------------------------------|
E|------------------------------------------|
   
Variação parte 1 

   p.m.
E|------0---0-0-0---------------------------|
B|------3---3-3-3---------------------------|
G|-2-2--2---2-2-2---------------------------|
D|-0-0--0---0-0-0---------------------------|
A|------------------------------------------|
E|------------------------------------------|


2 
   D9/C#
E|--------0-0-0-0---------------------------|
B|-x--3---3-3-3-3---------------------------|
G|-x--2---2-2-2-2---------------------------|
D|------------------------------------------|
A|-x--4---4-4-4-4---------------------------|
E|------------------------------------------|

3
   Bm7
E|------------------------------------------|
B|---3-----3--3-3-3-------------------------|
G|-2-2-2---2--2-2-2-------------------------|
D|------------------------------------------|
A|-2---2---2--2-2-2-------------------------|
E|------------------------------------------|

4
   G9
E|------------------------------------------|
B|-x------0-0-0-0---------------------------|
G|-x--2---2-2-2-2---------------------------|
D|----0---0-0-0-0---------------------------|
A|-x----------------------------------------|
E|----3---3-3-3-3---------------------------|


D9                 D9/C#
  Às vezes não consigo esquecer
Bm7        G9
  Daquele nosso amor
D9                 D9/C#
  Momentos tão incríveis com você
Bm7               G9
  Que o tempo não apagou
D9              D9/C#
  É como num romance de cinema
Bm7              G9
  Minha paixão, você chegou
D9                 D9/C#
  O seu olhar pra mim é um poema
Bm7                 G9
  Minha canção de amor


Segunda Parte:

1
   Bm11           F#m7
E|-------0----------------------------------|
B|---------2------------2-0-----------------|
G|-----4-----4-0------2-----2---------------|
D|---4--------------2---------0-------------|
A|-2----------------------------------------|
E|----------------2-------------------------|

2
   G9
E|------------------------------------------|
B|-------0--0-0-0--0------0-0-0-0-----------|
G|-------2--2-2-2--2------2-2-2-2-----------|
D|-0-0---0--0-0-0--0---0--0-0-0-0-----------|
A|------------------------------------------|
E|-3-3---3--3-3-3--3---3--3-3-3-3-----------|

Variação parte 2

   G9
E|------------------------------------------|
B|-------0---------------0-0-0-0------------|
G|-----2---2---2---------2-2-2-2------------|
D|---0-------0---0----0--0-0-0-0------------|
A|------------------------------------------|
E|-3------------------3--3-3-3-3------------|

3
   Bm11           F#m7
E|-------0----------------------------------|
B|---------2------------2-0-----------------|
G|-----4-----4-0------2-----2---------------|
D|---4--------------2---------0-------------|
A|-2----------------------------------------|
E|----------------2-------------------------|

4
   G9              A9
E|------------------------0-0-0-0-----------|
B|-------0--0-0-0--x------0-0-0-0-----------|
G|-------2--2-2-2--x---6--6-6-6-6-----------|
D|-0-0---0--0-0-0--x---7--7-7-7-7-----------|
A|-----------------x---7--7-7-7-7-----------|
E|-3-3---3--3-3-3--x---5--5-5-5-5-----------|


Variação parte 4

   G9          A9
E|------------------------------------------|
B|-------0-----x------0-0-------0-0---------|
G|-----2---2---x---6--6-6---6---6-6---------|
D|---0-------0-x---7--7-7---7---7-7---------|
A|-------------x---7--7-7---7---7-7---------|
E|-3-----------x---5--5-5---5---5-5---------|



Bm11                 F#m7
  Não sei por quê essa saudade 
    G9
Só faz me maltratar
Bm11               F#m7
  Será que um dia nos meus sonhos
   G9            A9
Você vem me acordar


Refrão:

D9                A9
  O seu amor pra mim é tudo
Bm7(11)             G9
  Eu não vou te perder, eu juro
D9               A9
  Preciso tanto dos seus beijos
Em7(9)              G9
  Menina, eu to querendo te encontrar
D9    D9/C#  Bm7(11)
  Ah....Ah
          G9
Eu to querendo te encontrar
D9    D9/C#   Em7
  Ah....ah


Repete a Primeira Parte:

D9                 D9/C#
  Às vezes não consigo esquecer
Bm7        G9
  Daquele nosso amor
D9                 D9/C#
  Momentos tão incríveis com você
Bm7               G9
  Que o tempo não apagou


Repete a Segunda Parte:

Bm11                 F#m7
  Não sei por quê essa saudade 
    G9
Só faz me maltratar
Bm11               F#m7
  Será que um dia nos meus sonhos
   G9            A9
Você vem me acordar



Refrão Final:

Passagem:
   Em      Em/F#     Em/G      A9
E|----0--------0---------0-----0-0-0-0--0---|
B|------0--------0---------0---0-0-0-0--0---|
G|-----------------------------6-6-6-6--6---|
D|-----------2---------2-------7-7-7-7--7---|
A|-----------------------------7-7-7-7--7---|
E|-0-------2---------3---------5-5-5-5--5---|

D9                A9
  O seu amor pra mim é tudo
Bm7(11)             G9
  Eu não vou te perder, eu juro
D9               A9
  Preciso tanto dos seus beijos
Em7(9)              G9             E  G9
  Menina, eu to querendo te encontrar
                         E  G9
Eu to querendo te encontrar
                    Bm7(11)
Não faz assim, não sei viver
     A9           G9
Sem ter você pra mim


D9                A9
  O seu amor pra mim é tudo
Bm7(11)             G9
  Eu não vou te perder, eu juro
D9               A9
  Preciso tanto dos seus beijos
Em   Em/F#          Em/G       A9
  Menina, eu tô querendo te encontrar


D9                A9
  O seu amor pra mim é tudo
Bm7(11)             G9
  Eu não vou te perder, eu juro
D9               A9
  Preciso tanto dos seus beijos
Em7(9)              G9
  Menina, eu to querendo te encontrar


D9    A9   Em7(9)
  Ah....Ah
          G9
Eu to querendo te encontrar
D9    A9   Em7(9)
  Ah....ah
Acordes para:

    0 comentários

    mostrar mais comentários

    Conseguiu tocar?

    21 tocaram 2 ainda não

    Grave um vídeo tocando Querendo Te Encontrar e mande pra gente!

    00:00 / 00:00
    outros vídeos desta música
    repetir qualidade Automático
    Outros vídeos desta música
    00:00 / 00:00
    Automático
    Capítulos
    • Tocando a Música
    • Dicas Iniciais / Equipamentos
    • Acordes da Primeira Parte
    • Tocando a Primeira Parte
    • Primeira Parte - Parte 1 de 4
    • Primeira Parte - Parte 2 de 4
    • Primeira Parte - Parte 3 de 4
    • Primeira Parte - Parte 4 de 4
    • Acordes da Segunda Parte
    • Tocando a Segunda Parte
    • Segunda Parte - Parte 1 de 4
    • Segunda Parte - Parte 2 de 4
    • Segunda Parte - Parte 3 de 4
    • Segunda Parte - Parte 4 de 4
    • Acordes do Refrão
    • Tocando os Acordes
    • Ensinando o Ritmo do Refrão
    • Acordes do Último Refrão
    • Tocando o Último Refrão
    • Ensinando o Ritmo do Último Refrão
    • Ensinando a Passagem
    • Encerramento
    • Ficha Técnica
    OK