Cifra Club

Mistério do Planeta

Novos Baianos

Cifra: Principal (violão e guitarra)
tom: E
[Intro] A7M  C#m7  A7M  C#m7
        A7M  C#m7

[Parte 1 de 3]
  A7M                  C#m7
E|--4p2-------4p2-----------4--------------------------|
B|--2---2-----2----2--------5-7---5--------------------|
G|--2---2--2--2--2-2--x-----4---4-----6---4---x--------|
D|-----------------------------------------------------|
A|--0---------0-----------4---------4---4---4----------|
E|-----------------------------------------------------|

[Parte 2 de 3]
    A7M                     C#m7  
E|--4p2---------4p2------------4-7---4-----------------|
B|--2-----2-----2-----2--------5---------7---5---------|
G|--2-----2--2--2-----2--x-----4---------4---4---x-----|
D|-----------------------------------------------------|
A|--0---0-------0---0--------4-----4---4---4---4-------|
E|-----------------------------------------------------|

[Parte 3 de 3]
    A7M                     C#m7
E|--4p2---------4p2------------------------------------|
B|--2-----2-----2-----2------------5-------------------|
G|--2-----2--2--2-----2--x---------4-------------------|
D|---------------------------------6-------------------|
A|--0---0-------0---0--------4--7----------------------|
E|-----------------------------------------------------|

[Primeira Parte]

[Parte 1 de 4]
   F#m7  B7(9) B7  C#m7  C#m6  A7  B7  A7  G#7
E|-----------------4-----4-----------------------------|
B|-2-----2-----0---5-----5-----5---7---5---4----4------|
G|-2-----2-----2---4-----3-----6---8---6---5----5------|
D|-2-----1-----1---------------5---7---5---4----4------|
A|-------2-----2---4-----4-----------------------------|
E|-2---------------------------5---7---5---4--4--------|

[Parte 2 de 4]
   C#m7 C#m6 G7  F#7       A7       E7
E|---4----4---------------------------0-0-0------------|
B|---5----5----3----2-2-2----2-2-2----3-3-3------------|
G|---4----3----4----3-3-3----0-0-0----1-1-1------------|
D|-------------3----2-2-2----2-2-2---------------------|
A|-4----4------------------0---------------------------|
E|-----------3----2-----------------0------------------|

[Parte 3 de 4]
   C#m7 C#m6 G7  F#7       A7       F#m7    B7
E|---4----4--------------------------------------------|
B|---5----5----3----2-2-2----2-2-2----2-2-2----0-0-0---|
G|---4----3----4----3-3-3----0-0-0----2-2-2----2-2-2---|
D|-------------3----2-2-2----2-2-2----2-2-2----1-1-1---|
A|-4----4------------------0-----------------2---------|
E|-----------3----2-----------------2------------------|

[Parte 4 de 4]
  C#m7      A7M      C#m7    A7M      C#m7
E|---4--------4-2-2----4--------4-2-2------------------|
B|---5-5-5----2-2-2----5-5-5----2-2-2-----5------------|
G|---4-4-4----2-2-2----4-4-4----2-2-2-----4------------|
D|-----6-6---------------6-6--------------6------------|
A|-4--------0--------4--------0-------4-7--------------|
E|-----------------------------------------------------|

 F#m7    B7(9) B7   C#m7  C#m6
Vou mostrando como sou
A7 B7  A7    G#7
E vou sendo como posso
   C#m7  C#m6     G7    F#7
Jogando meu   corpo no mundo
A7                    E7
Andando por todos os cantos
        C#m7   C#m6  G7    F#7
E pela lei  natural dos encontros
    A7                F#m7
Eu deixo e recebo um tanto
                   B7
E passo aos olhos nus
             C#m7
Ou vestidos de lunetas
    A7M
Passado, presente
 C#m7           
Participo sendo 
A7M                   C#m7
O mistério do planeta

( A7M  C#m7  A7M  C#m7 )
( A7M  C#m7 )

[Parte 1 de 3]
   A7M               C#m7
E|-2-4p2-4p2-4p2-4p2----4------------------------------|
B|-2--------------------5-7---5------------------------|
G|-2--------------------4---4------6---4---x-----------|
D|-----------------------------------------------------|
A|-0------------------4----------4---4---4-------------|
E|-----------------------------------------------------|

[Parte 2 de 3]
    A7M                     C#m7  
E|--4p2---------4p2------------4-7---4-----------------|
B|--2-----2-----2-----2--------5---------7---5---------|
G|--2-----2--2--2-----2--x-----4---------4---4---x-----|
D|-----------------------------------------------------|
A|--0---0-------0---0--------4-----4---4---4---4-------|
E|-----------------------------------------------------|

[Parte 3 de 3]
    A7M                     C#m7
E|--4p2---------4p2------------------------------------|
B|--2-----2-----2-----2------------5-------------------|
G|--2-----2--2--2-----2--x---------4-------------------|
D|---------------------------------6-------------------|
A|--0---0-------0---0--------4--7----------------------|
E|-----------------------------------------------------|

[Primeira Parte]

 F#m7    B7(9) B7   C#m7  C#m6
Vou mostrando como sou
A7 B7  A7    G#7
E vou sendo como posso
   C#m7  C#m6     G7    F#7
Jogando meu   corpo no mundo
A7                    E7
Andando por todos os cantos
        C#m7   C#m6  G7    F#7
E pela lei  natural dos encontros
    A7                F#m7
Eu deixo e recebo um tanto
                   B7
E passo aos olhos nus
             C#m7
Ou vestidos de lunetas
    A7M
Passado, presente
 C#m7           
Participo sendo 
A7M                  C#m7
O mistério do planeta

[Segunda Parte]

[Parte 1 de 5]
   B7       F#m7        B7       
E|-----------------------------------------------------|
B|---0-0---0----2-2---2----0-0---0---------------------|
G|---2-2---2----2-2---2----2-2---2---------------------|
D|---1-1---1----2-2---2----1-1---1---------------------|
A|-2-----2---------------2-----2-----------------------|
E|------------2-----2----------------------------------|

[Parte 2 de 5]
   E  E7M/D# C#m7 E/B A#° G7  F#7    A7     E7
E|-----------------------------------------------------|
B|---5---5---5----5---5----3---2-2--2---2-2---2--3-3---|
G|---4---4---4----4---6----4---3-3--3---0-0---0--1-1---|
D|-------------------------3---2-2--2---2-2---2--0-0---|
A|-7---6---4--------------------------0-----0----------|
E|--------------7---6----3---2-----2------------0----0-|

[Parte 3 de 5]
  C#m7 C#m6 G7  F#7      A7       E7
E|-4---4-----------------------------------------------|
B|-5---5----3----2-2---2---2-2---2----3-3--------------|
G|-4---3----4----3-3---3---0-0---0----1-1--------------|
D|----------3----2-2---2---2-2---2----0-0--------------| (2x)
A|-4---4-----------------0-----0-----------------------|
E|----------3--2-----2--------------0-----0------------|

[Parte 4 de 5]
  C#m7 C#m6 G7  F#7       A7         B7
E|-4---4-----------------------------------------------|
B|-5---5----3----2-2---2----5-5---5----7-7---7---------|
G|-4---3----4----3-3---3----6-6---6----8-8---8---------|
D|----------3----2-2---2----5-5---5----7-7---7---------|
A|-4---4-----------------------------------------------|
E|----------3--2-----2----5-----5----7-----7-----------|

[Parte 5 de 5]
   C#m7    A7M      C#m7     A7M      C#m7
E|---4--------4-2-2----4--------4-2-2------------------|
B|---5-5-5----2-2-2----5-5-5----2-2-2-----5------------|
G|---4-4-4----2-2-2----4-4-4----2-2-2-----4------------|
D|-----6-6---------------6-6--------------6------------|
A|-4--------0--------4--------0-------4-7--------------|
E|-----------------------------------------------------|

    B7               F#m7
O tríplice mistério do "stop"
        B7               E
Que eu passo por e sendo ele
 E7M/D#      C#m7    E/B  A#°  G7  F#7
No      que fica em cada  um
        A7           E7
No que sigo o meu caminho
             C#m7 C#m6  G7    F#7
E no ar que fez que     assistiu
     A7              E7
Abra um parênteses, não esqueça
  C#m7   C#m6  G7    F#7
Que   indepen_dente disso
        A7      E7
Eu não passo de um malandro
   C#m7  C#m6  G7    F#7
De um moleque do Brasil
     A7           B7
Que peço e dou esmolas
C#m7
     Mas ando e penso 
 A7M               C#m7
Sempre com mais de um
              A7M            C#m7
Por isso ninguém vê minha sacola

( A7M  C#m7  A7M  C#m7 )
( A7M  C#m7 )

[Parte 1 de 3]
   A7M               C#m7
E|-2-4p2-4p2-4p2-4p2----4------------------------------|
B|-2--------------------5-7---5------------------------|
G|-2--------------------4---4------6---4---x-----------|
D|-----------------------------------------------------|
A|-0------------------4----------4---4---4-------------|
E|-----------------------------------------------------|

[Parte 2 de 3]
    A7M                     C#m7  
E|--4p2---------4p2------------4-7---4-----------------|
B|--2-----2-----2-----2--------5---------7---5---------|
G|--2-----2--2--2-----2--x-----4---------4---4---x-----|
D|-----------------------------------------------------|
A|--0---0-------0---0--------4-----4---4---4---4-------|
E|-----------------------------------------------------|

[Parte 3 de 3]
    A7M                     C#m7
E|--4p2---------4p2------------------------------------|
B|--2-----2-----2-----2------------5-------------------|
G|--2-----2--2--2-----2--x---------4-------------------|
D|---------------------------------6-------------------|
A|--0---0-------0---0--------4--7----------------------|
E|-----------------------------------------------------|

[Primeira Parte]

 F#m7    B7(9) B7   C#m7  C#m6
Vou mostrando como sou
A7 B7  A7    G#7
E vou sendo como posso
   C#m7  C#m6     G7    F#7
Jogando meu   corpo no mundo
A7                    E7
Andando por todos os cantos
        C#m7   C#m6  G7    F#7
E pela lei  natural dos encontros
    A7                F#m7
Eu deixo e recebo um tanto
                   B7
E passo aos olhos nus
             C#m7
Ou vestidos de lunetas
    A7M
Passado, presente
 C#m7           
Participo sendo 
A7M                   C#m7
O mistério do planeta

[Segunda Parte]

    B7               F#m7
O tríplice mistério do "stop"
        B7               E
Que eu passo por e sendo ele
 E7M/D#   C#m7    E/B  A#°  G7  F#7
No que   fica em cada  um
        A7           E7
No que sigo o meu caminho
             C#m7 C#m6  G7    F#7
E no ar que fez que     assistiu
     A7              E7
Abra um parênteses, não esqueça
  C#m7   C#m6  G7    F#7
Que   indepen_dente disso
        A7      E7
Eu não passo de um malandro
   C#m7  C#m6  G7    F#7
De um moleque do Brasil
     A7           B7
Que peço e dou esmolas
C#m7
     Mas ando e penso 
 A7M               C#m7
Sempre com mais de um
          A7M               C#m7
Por isso ninguém vê minha sacola

( A7M  C#m7  A7M  C#m7 )
( A7M  C#m7 )

[Final] A7M  C#m7  A7M  C#m7
        A7M  C#m7  A7M  C#m7
        A7M  C#m7  A7M  C#m7
        A7M  C#m7  E

  C#m7    E
E|--------0--------------------------------------------|
B|-----5--0--------------------------------------------|
G|-----4--1--------------------------------------------|
D|-----6--2--------------------------------------------|
A|-4-7----2--------------------------------------------|
E|--------0--------------------------------------------|
00:00 / 00:00
Outros vídeos desta música
Repetir
Outros vídeos desta música
Composição de Luis Galvão / Moraes Moreira / Paulinho Boca de Cantor
464.440 exibições
    • ½ Tom
    • A
    • Bb
    • B
    • C
    • Db
    • D
    • Eb
    • E
    • F
    • F#
    • G
    • Ab
  • Adicionar à lista

    0 comentários

    Ver todos os comentários

    Entre para oCifra Club PRO

    Tenha acesso a benefícios exclusivos no App e no Site

    • Chega de anúncios

    • Prioridade de compra em lançamentos

    • Mais recursos no app do Afinador

    • Atendimento Prioritário

    • Descontos nos produtos Cifra Club

    • Ajude a produzir mais conteúdo

    00:00 / 00:00
    Capítulos
    • Apresentação
    • Tocando a Música
    • Acordes Introdução
    • Ensinando Introdução
    • Acordes Primeira Parte
    • Tocando Primeira Parte
    • Ensinando Primeira Parte
    • Acordes Segunda Parte
    • Tocando Segunda Parte
    • Ensinando Segunda Parte
    • Acorde Base do Solo
    • Tocando Base do Solo
    • Ensinando Ritmo Base do Solo e Final
    • Encerramento

    Cifra Club Pro

    Aproveite o Cifra Club com benefícios exclusivos e sem anúncios
    Cifra Club Pro
    Aproveite o Cifra Club com benefícios exclusivos e sem anúncios
    OK