Cifra Club

Tinindo Trincando

Novos Baianos

Cifra: Principal (violão e guitarra)
Selo Cifra Club: esta cifra foi revisada para atender aos critérios oficiais da nossa Equipe de Qualidade.
tom: C
Intro solo

o número corresponde à casa 
a linha corresponde à corda

/    slide
v    vibrato
h    hammer on
p    pull of

E|----------------------------------------------------------------------
B|----------------------------------------------------------------------
G|-----11-9-------------------------------------------------------------
D|--12------12-11-10v-----10----10----10--9/11v-------------------------
A|--------------------12----12----12------------12----------------------
E|----------------------------------------------------------------------

E|----------------------------------------------------------------------
B|-----------------10----10-12-10--10-----------------------------------
G|-----11-9--11-12----12---------12---12-11-12-11----11-----------------
D|--12--------------------------------------------12----12--------------
A|---------------------------------------------------------12v----------
E|----------------------------------------------------------------------

E|----------------------------------------------------------------------
B|----------------------------------------------------------------------
G|-----11-9-----------------------12-------------------------9/11-------
D|--12------12-11--------10h12/14----14/12-10----10----10---------12v---
A|-----------------10h12----------------------12----12----12------------
E|----------------------------------------------------------------------

E|---------------------------------------------12h15p12-----------15v---
B|---------------------------------------13/15----------13/15-----15v---
G|-----11-9---------------------12-13-14----------------------14--------
D|--12------12---------10h12/14-----------------------------------------
A|---------------10h12--------------------------------------------------
E|----------------------------------------------------------------------


Am      D7/9
Eu vou assim
Am     D7/9
E venho assim
Am     D7/9
Eu vou assim
Am     D7/9 D7/9b
E venho assim

G7+                    Bm7
Porque quem vai de não
    F7  C   Bm7   Am7
Não chega não
G7+               Bm7
Chega não porque pra ir
          F7
Só mesmo assim
          C
Só mesmo assim
          Bm7
Só mesmo assim
 D7
assim

 Am            D7/9
Um dia assim
Am             D7/9
Um dia assado
Am             D7/9
Um dia assim
Am                       D7/9       (F# G Am)
No duro tinindo tinindo trincando
Outros vídeos desta música
30.457 exibições
    • ½ Tom
    • A
    • Bb
    • B
    • C
    • Db
    • D
    • Eb
    • E
    • F
    • F#
    • G
    • Ab
  • Adicionar à lista

Afinação da cifra

Afinador online

    0 comentários

    Ver todos os comentários

    Entre para o Cifra Club PRO

    Tenha acesso a benefícios exclusivos no App e no Site

    • Chega de anúncios

    • Mais recursos no app do Afinador

    • Atendimento Prioritário

    • Aumente seu limite de lista

    • Ajude a produzir mais conteúdo

    Cifra Club Pro

    Aproveite o Cifra Club com benefícios exclusivos e sem anúncios
    Cifra Club Pro
    Aproveite o Cifra Club com benefícios exclusivos e sem anúncios
    OK