Cifra Club

Balada do Amor Perdido

Papas da Língua

Cifra: Principal (violão e guitarra)
Selo Cifra Club: esta cifra foi revisada para atender aos critérios oficiais da nossa Equipe de Qualidade.
tom: C
(intro)
    G      Bm7    Em         G7          C          Cm           D
E|---------------------------------------------------------------------------|
B|---15/12~-----15/12~------15/17-----------15/12~---15~~~----15/16\15\13/15-|
G|--------------------------------16/14/12~----------------------------------|
D|---------------------------------------------------------------------------|
A|---------------------------------------------------------------------------|
E|---------------------------------------------------------------------------|

    G         Bm7    Em      G7    C           Cm          D
E|---------------------------------------------------------------------------|
B|---15\12~------------------------------------------------------------------|
G|-----------14\12~------9/10\9/10\9~------5/7/8~-------14/16~~~-------------|
D|---------------------------------------------------------------------------|
A|---------------------------------------------------------------------------|
E|---------------------------------------------------------------------------|

G                   Bm7
Feche os olhos meu amor
C                     Am
Sei que você pode me escutar
G                  Bm7
Não consigo mais dormir
C                          Am
Tanta coisa eu tenho pra falar
Am                    D
Vem a noite saio a procurar
G        Gmaj7(9)       Em
Outros lábios pra me consolar
Am                        D
Chega o dia e eu me sinto só, tão só
G   Bm7  Em   G7      C
Você se foi, você se perdeu
              Cm        D
O amor que eu guardei pra nós dois
G   Bm7  Em   G7      C
Você sumiu num dia de sol
Cm           D
Mas sei que você não está feliz

G                   Bm7
Feche os olhos meu amor
C                     Am
Sei que você pode me escutar
G                  Bm7
Não consigo mais dormir
C                          Am
Tanta coisa eu tenho pra falar
Am                    D
Vem a noite saio a procurar
G        Gmaj7(9)       Em
Outros lábios pra me consolar
Am                        D
Chega o dia e eu me sinto só, tão só
G   Bm7  Em   G7      C
Você se foi, você se perdeu
              Cm        D
O amor que eu guardei pra nós dois
G   Bm7  Em   G7      C
Você sumiu num dia de sol
Cm            D      F
Um dia você vai voltar
         D           F D          F D         F  D
Vai voltar, vai voltar, vai voltar, vai voltar..

G   Bm7  Em   G7      C
Você se foi, você se perdeu
              Cm        D
O amor que eu guardei pra nós dois
G   Bm7  Em   G7      C
Você sumiu num dia de sol
Cm             D                G
Mas sei que você não está feliz
Outros vídeos desta música
29.478 exibições
    • ½ Tom
    • A
    • Bb
    • B
    • C
    • Db
    • D
    • Eb
    • E
    • F
    • F#
    • G
    • Ab
  • Adicionar à lista

Afinação da cifra

Afinador online

    0 comentários

    Ver todos os comentários

    Entre para o Cifra Club PRO

    Tenha acesso a benefícios exclusivos no App e no Site

    • Chega de anúncios

    • Mais recursos no app do Afinador

    • Atendimento Prioritário

    • Aumente seu limite de lista

    • Ajude a produzir mais conteúdo

    Cifra Club Pro

    Aproveite o Cifra Club com benefícios exclusivos e sem anúncios
    Cifra Club Pro
    Aproveite o Cifra Club com benefícios exclusivos e sem anúncios
    OK