Cifra Club

Jeito de Mato

Paula Fernandes

Cifra: Principal (violão e guitarra)
Tom: A (forma dos acordes no tom de G) Capotraste na 2ª casa
[Intro] G  Em7  C9  Am7
        G  Em7  C9  Am7  D4

(Padrão dedilhado)

    G
E|-3-----5-----5-----5--------------------------------|
B|-----0-----0-----0-----0----------------------------|
G|---0-----0-----0-----0------------------------------|
D|----------------------------------------------------|
A|----------------------------------------------------|
E|-3--------------------------------------------------|

(Variação padrão dedilhado)

    Am7         D4
E|-3-----3-----3-----3--------------------------------|
B|-----1-----1-----3-----3----------------------------|
G|---2-----2-----2-----2------------------------------|
D|-------------0--------------------------------------|
A|-0--------------------------------------------------|
E|----------------------------------------------------|

[Solo Intro]

  (1ª parte)            (2ª parte)
E|-5-5-4p2-------------|-2----------------------------|
B|---------5-3p2-5-5/7-|---5-3p2---2-3h5-3------------|
G|---------------------|---------4--------------------|
D|---------------------|------------------------------|
A|---------------------|------------------------------|
E|---------------------|------------------------------|

  (3ª parte)            (4ª parte)
E|-2-------------------|-2----------------------------|
B|---5-3p2---2-3p2-----|-----3---3-3p2-2--------------|
G|---------4-------4---|---4---4----------------------|
D|---------------------|------------------------------|
A|---------------------|------------------------------|
E|---------------------|------------------------------|

[Primeira Parte]

 G                       Em7
De onde é quem vem esses olhos tão tristes?
 G                  Em7
Vem da campina onde o sol se deita
      C                 Em/B
Do regalo de terra que teu dorso ajeita
   Am7                C
E dorme serena, no sereno e sonha

 G                        Em7
De onde é que salta essa voz tão risonha?
     G                  Em7
Da chuva que teima, mas o céu rejeita
    C                 Em/B
No mato, do medo, da perda tristonha
       Am7              C
Mas, que o sol resgata, arde deleita

[Segunda Parte]

           G                            D4/F#
Há uma estrada de pedra que passa na fazenda
                      Em7
É teu destino, é tua senda
                        C
De onde nascem tuas canções
          G                                D4/F#
As tempestades do tempo que marcam tua história
                      Em7
Fogo que queima na memória
                 C
E acende os corações

[Terceira Parte]

 Am7                                C
Sim, dos teus pés na terra nascem flores
                           Em7
A tua voz macia aplaca as dores
                           D4/F#
E espalha cores vivas pelo ar

 Am7                          C
Sim, dos teus olhos saem cachoeiras
                          Em7
Sete Lagoas, mel e brincadeiras
                          D4    Am7  C
Espumas, ondas, águas do teu mar

( G  Em7  C9  Am7 )
( G  Em7  C9  Am7  D4 )

[Segunda Parte]

           G                            D4/F#
Há uma estrada de pedra que passa na fazenda
                      Em7
É teu destino, é tua senda
                        C
De onde nascem tuas canções
          G                                D4/F#
As tempestades do tempo que marcam tua história
                      Em7
Fogo que queima na memória
                 C
E acende os corações

[Terceira Parte]

 Am7                                C
Sim, dos teus pés na terra nascem flores
                           Em7
A tua voz macia aplaca as dores
                           D4/F#
E espalha cores vivas pelo ar

 Am7                          C
Sim, dos teus olhos saem cachoeiras
                          Em7
Sete Lagoas, mel e brincadeiras
                          D4    Am7  C
Espumas, ondas, águas do teu mar

[Primeira Parte - Almir Sater]

 G                       Em7
De onde é quem vem esses olhos tão tristes?
 C                  Am7
Vem da campina onde o sol se deita
 G                        Em7
De onde é que salta essa voz tão risonha
 C                Am7   D4
Dorme serena, no sereno e sonha

 G                       Em7               C
De onde é quem vem esses olhos tão tristes
 Am7                G
Dorme serena e sonha
exibições 1.667.940
Acordes para:

    0 comentários

    mostrar mais comentários

    Conseguiu tocar?

    178 tocaram 11 ainda não

    Grave um vídeo tocando Jeito de Mato e mande pra gente!

    00:00 / 00:00
    outros vídeos desta música
    repetir qualidade Automático
    Outros vídeos desta música
    00:00 / 00:00
    Automático
    Capítulos
    • Início
    • Dicas iniciais
    • Acordes da introdução
    • Tocando a introdução
    • Ensinando o dedilhado para música
    • Acordes da primeira parte
    • Tocando a primeira parte
    • Acordes da segunda parte
    • Tocando a segunda parte
    • Acordes da terceira parte
    • Tocando a terceira parte
    • Tocando trecho da música
    • Tocando solo da introdução
    • Ensinando o solo da intro (1ª e 2ª parte)
    • Ensinando o solo da intro (3ª e 4ª parte)
    • Encerramento
    • Extras
    OK