Cifra Club

Aprenda

Jardim da Inocência

Paulo César Baruk

Cifra: Principal (violão e guitarra)
tom: C
[Intro] B9  F#/A#  G#m7/9  F#  E9

[Primeira Parte]

            B9             G#m7/9           E9            B9
Ah! que saudade, que saudade de ouvir tua voz ao entardecer
                           G#m7/9             E9           B9
Ah! que vontade, que vontade de voltar ao jardim da inocência

[Pré-Refrão]

         F#/A#            G#m7/9      F#      E           B9
Se eu pudesse voltaria atrás e não faria novamente o que fiz
                 F#/A#                       G#m7/9
Troquei a minha comunhão, pela escuridão da noite
              E9           
Em trevas tornei os meus dias

[Primeira Parte]

            B9             G#m7/9           E9            B9
Ah! que saudade, que saudade de ouvir tua voz ao entardecer
                           G#m7/9             E9           B9
Ah! que vontade, que vontade de voltar ao jardim da inocência

[Pré-Refrão]

         F#/A#            G#m7/9      F#      E           B9
Se eu pudesse voltaria atrás e não faria novamente o que fiz
                 F#/A#                       G#m7/9
Troquei a minha comunhão, pela escuridão da noite
              E9
Em trevas tornei os meus dias

[Refrão]

            B9               F#/A#         G#m7/9             E9
Ah! que vontade de andar contigo, pelo jardim na viração dos dias
          B9           F#/A#                  G#m7/9        E9
Pegar em tuas mãos e voar, pela imensidão da terra e te adorar
           B9              F#/A#             G#m7/9       Em7/11
Ah que vontade de dizer a Ti, tudo que aprendi, nesse jardim
              G#m7 (solo) 
Jardim da Inocência

[Solo] G#m7  D#/G  F#  C#/F  E  E/F#  F/G 

E|-----------------------------------------------------|
B|--14-12------12---14---12----------------------------|
G|---------15------------------------------------------|
D|-----------------------------------------------------|
A|-----------------------------------------------------|
E|-----------------------------------------------------|

E|-----------------------------16-16-16-16------14-16--|
B|----12---14-16--12-----12------------------17--------|
G|--15----------------15-------------------------------|
D|-----------------------------------------------------|
A|-----------------------------------------------------|
E|-----------------------------------------------------|

E|---14-12--11--12--11------------------11--------16---|
B|----------------------12-----------12-------14-------|
G|--------------------------------13-------------------|
D|-----------------------------------------------------|
A|-----------------------------------------------------|
E|-----------------------------------------------------|

[Refrão]

            C9               G/B           Am7/11            F9
Ah! Que vontade de andar contigo, pelo jardim na viração dos dias
          C9           G/B                    Am7/11       Fm6
Pegar em tuas mãos e voar, pela imensidão da terra e te adorar
Fm6/D       C/G             Em7              F7M           Fm6/G#
Ah! Que vontade de dizer a Ti, tudo que aprendi, nesse jardim

[Final] C  G/B  Am  Fm6  C
Composição de Alexandre Malaquias
409.027 exibições
    • ½ Tom
    • A
    • Bb
    • B
    • C
    • Db
    • D
    • Eb
    • E
    • F
    • F#
    • G
    • Ab
  • Adicionar à lista

    0 comentários

    Ver todos os comentários
    00:00 / 00:00
    Outros vídeos desta música
    Repetir Qualidade Automático
    Outros vídeos desta música
    00:00 / 00:00
    Automático

    Cifra Club Pro

    Aproveite o Cifra Club com benefícios exclusivos e sem anúncios
    Cifra Club Pro
    Aproveite o Cifra Club com benefícios exclusivos e sem anúncios
    OK