Cifra Club

Jardim da Inocência

Paulo César Baruk

Cifra: Principal
exibições 324.970
Tom: C
[Intro]  F#/A#  G#m  F#  E

            B9             G#m                E9         B
Ah! que saudade, que saudade de ouvir tua voz ao entardecer
            B9             G#m                E9           B
Ah! que vontade, que vontade de voltar ao jardim da inocência
       F#/A#              G#m       F#        E    B
Se eu pudesse voltaria atrás e não faria novamente o que fiz
                 F#/A#                       G#m
Troquei a minha comunhão, pela escuridão da noite
              E9          E
Em trevas tornei os meus dias

            B                F#/A#      G#m                   E
Ah! que vontade de andar contigo, pelo jardim na viração dos dias
          B           F#/A#                G#m            E
Pegar em tuas mãos e voar, pela imensidão da terra e te adorar
             B             F#/A#             G#m          Em/G
Ah Que vontade de dizer a Ti, tudo que aprendi, nesse jardim
              B9
Jardim da Inocência

[Ponte]  G#m  D#/G  F# C#/F  E  F#  G

      ....ôôô...ô

E|--------|--------------------|------------------------|-----------16-16-16-16------14-16--|
B|--14-12-|-----12---14---12---|----12---14-16--12------|-----12------------------17--------|
G|--------|-15-----------------|--15--------------------|--15-------------------------------|
D|--------|--------------------|------------------------|-----------------------------------|
A|--------|--------------------|------------------------|-----------------------------------|
E|--------|--------------------|------------------------|-----------------------------------|


E|---14-12--11--12--11-------------------11--------16---|
B|-----------------------12-----------12-------14-------|
G|---------------------------------13-------------------|
D|------------------------------------------------------|
A|------------------------------------------------------|
E|------------------------------------------------------|


            C                G/B           Am                 F
Ah! que vontade de andar contigo, pelo jardim na viração dos dias
           C          G/B                  Am             F    D
Pegar em tuas mãos e voar, pela imensidão da terra e te adorar
            C/G             C/E               F            Fm/G#  Fm
Ah! Que vontade de dizer a Ti, tudo que aprendi, nesse jardim
            C
Jardim da Inocência

[Final]  C  G/B  Am  F
         C  G/B  Am  Fm/G#  F
         C

0 comentários

    mostrar mais comentários

    Conseguiu tocar?

    26tocaram2ainda não

    Grave um vídeo tocando Jardim da Inocência e mande pra gente!

    00:00 / 00:00
    outros vídeos desta música
    repetirqualidadeautomática
    Outro vídeos desta música
      00:00 / 00:00
      automática
      OK