Cifra Club

Aprenda

Santo Espírito (Holy Spirit) (part. Leonardo Gonçalves)

Paulo César Baruk

Cifra: Principal (violão e guitarra)
Tom: E
[Intro] E  A9

   E
E|--------0------0------0------------------|
B|-----------4------4-----4----------------|
G|------4------4------4-----4--------------|
D|---2--------------------------2----------|
A|-----------------------------------------|
E|-0---------------------------------------|

E|----------0-----0-----0------------------|
B|-------------4-----4-----4---------------|
G|------4--------4-----4-----4-------------|
D|-----2---------------------------2-------|
A|-----------------------------------------|
E|---0-------------------------------------|

   A9
E|----------0-----0-----0------------------|
B|-------------4-----4-----4---------------|
G|-------4--------4-----4-----4------------|
D|-----2--------------------------2--------|
A|-0---------------------------------------|
E|-----------------------------------------|

E|----------0------0---------2p0-----------|
B|-------------4------4------------4-------|
G|-------4-------4------4------------4-----|
D|-----2-----------------------------------|
A|-0---------------------------------------|
E|-----------------------------------------|

[Primeira Parte]

E                 E7M                 A9
  Não há nada igual, não há nada melhor
                               E   E7M
A que se comparar à esperança viva
           A9
Tua presença

E              E7M               A9
  Eu provei e vi, o mais doce amor
                                     E  E7M
Que liberta o meu ser e a vergonha desfaz
           A9
Tua presença

[Refrão]

   E
E|--------0------0------0------------------|
B|-----------4------4-----4----------------|
G|------4------4------4-----4--------------|
D|---2--------------------------2----------|
A|-----------------------------------------|
E|-0---------------------------------------|

E|----------0-----0-----0------------------|
B|-------------4-----4-----4---------------|
G|------4--------4-----4-----4-------------|
D|-----2---------------------------2-------|
A|-----------------------------------------|
E|---0-------------------------------------|

   A9
E|----------0-----0-----0------------------|
B|-------------4-----4-----4---------------|
G|-------4--------4-----4-----4------------|
D|-----2--------------------------2--------|
A|-0---------------------------------------|
E|-----------------------------------------|

   F#m7(11)
E|----------0------0---------2p0-----------|
B|-------------0------0------------4-------|
G|-------2-------2------2------------4-----|
D|-----2-----------------------------------|
A|-----------------------------------------|
E|-2---------------------------------------|

 E               E7M
Santo Espírito, és bem-vindo aqui
    A9              F#m7(11)
Vem inundar, encher esse  lugar
  E               E7M
É o desejo do meu coração
       A9                  F#m7(11)  
Sermos inundados por tua glória, Senhor
 

[Primeira Parte]

E                E7M                   A9
  Não há nada igual, não há nada melhor
                               E  E7M
A que se comparar à esperança viva
           A9
Tua presença

E               E7M               A9
  Eu provei e vi, o mais doce amor
                                      E E7M
Que liberta o meu ser e a vergonha desfaz
           A9
Tua presença

[Refrão]

 E             E7M
Santo Espírito, és bem-vindo aqui
    A9              F#m7
Vem inundar, encher esse  lugar
  E             E7M
É o desejo do meu coração
       A9                  F#m7      
Sermos inundados por tua glória, Senhor


 E                E7M
Santo Espírito, és bem-vindo aqui
    A9              F#m7
Vem inundar, encher esse  lugar
  E               E7M
É o desejo do meu coração
       A9                  F#m7      
Sermos inundados por tua glória, Senhor

( E  A9  F#m7 )
( E  A9  F#m7 )

A9           E/G#       F#m7         E/G#
   Vamos provar  quão real é tua presença
A9           E/G#       F#m7       E/G#
   Vamos provar   tua glória e bondade
A9           E/G#       F#m7         E/G#
   Vamos provar  quão real é tua presença
A9           E/G#       F#m7       E/G#
   Vamos provar   tua glória e bondade

A9           E/G#       F#m7         E/G#
   Vamos provar  quão real é tua presença
A9           E/G#       F#m7       E/G#
   Vamos provar   tua glória e bondade
A9           E/G#       F#m7         E/G#
   Vamos provar  quão real é tua presença
A9           E/G#       F#m7       E/G#
   Vamos provar   tua glória e bondade

[Refrão]

Santo Espírito, és bem-vindo aqui
    A9              F#m7
Vem inundar, encher esse  lugar
  E
É o desejo do meu coração
       A9                  F#m7      E
Sermos inundados por tua glória, Senhor
    A9
Senhor

 E
Santo Espírito, és bem-vindo aqui
    A9              F#m7
Vem inundar, encher esse  lugar
  E
É o desejo do meu coração
       A9                  F#m7      E
Sermos inundados por tua glória, Senhor
    A9
Senhor

( E  A9 )

           E
Em Tua presença
           A9
Em Tua presença
        F#m7
Tua presença

 E
Santo Espírito, és bem-vindo aqui
    A9              F#m7
Vem inundar, encher esse  lugar
  E
É o desejo do meu coração
       A9                  F#m7      E
Sermos inundados por tua glória, Senhor
Composição de Cody Carnes / Kari Jobe 424.583 exibições
    • ½ Tom
    • A
    • Bb
    • B
    • C
    • Db
    • D
    • Eb
    • E
    • F
    • F#
    • G
    • Ab
  • Adicionar à lista

    0 comentários

    Mostrar mais comentários

    Conseguiu tocar?

    30 Tocaram 17 Ainda não

    Grave um vídeo tocando Santo Espírito (Holy Spirit) (part. Leonardo Gonçalves) e mande pra gente!

    00:00 / 00:00
    outros vídeos desta música
    repetir qualidade Automático
    Outros vídeos desta música
    00:00 / 00:00
    Automático

    Cifra Club Pro

    Aproveite o Cifra Club com benefícios exclusivos e sem anúncios
    7 dias grátis
    Cifra Club Pro
    Aproveite o Cifra Club com benefícios exclusivos e sem anúncios
    7 dias grátis
    OK