Cifra Club

Aprenda

Tudo É do Pai

Pe. Fábio de Melo

Cifra: Principal (violão e guitarra)
tom: B
[Intro]

E|---------------------------------------------------|
B|------------------------------2-2-4p5-2------------|
G|--3p4-4-4-3-----3-1-1-1------------------3/4-4-4-3-|
D|------------3/4----------2-2-----------------------|
A|---------------------------------------------------|
E|---------------------------------------------------|

       B              F#/A#        G#m    F#
Eu pensei que podia viver por mim mesmo
       E                   C#m
Eu pensei que as coisas do mundo
      F#              F#/A#
Não iriam me derrubar
     B          F#/A#         G#m   B
O orgulho tomou conta do meu ser
       E         C#m         F#7
E o pecado devastou o meu viver

       E              F#
Fui embora, disse ao pai
               D#m    G#m
Dá-me o que é meu!
         C#m           F#        B7(9)
Dá-me a parte que me cabe da herança!
         E             F#                  G#m
Fui pro mundo, gastei tudo, me restou só o pecado
           E              F#
E hoje eu sei que nada é meu
           B   F#7
Tudo é do pai

           B
Tudo é do pai!
      F#              G#m
Toda honra e toda a glória
  D#m       E         C#m           F#   F#7
É dele a vitória alcançada em minha vida
           B
Tudo é do pai!
       F#/A#       G#m
Se sou fraco e pecador
          D#m             E
Bem mais forte é o meu Senhor
        F#         B   F#7
Que me cura por amor!

E|-------------------------------------------|
B|-------------7--3p4------------------------|
G|-----3-3p4---------------------------------|
D|---6---------------------------------------|
A|-------------------------------------------|
E|-------------------------------------------|

E|-------------------------------------------|
B|------2------------------------------------|
G|--3-4----4-3-1-----------------------------|
D|----------------4--------------------------|
A|-------------------------------------------|
E|-------------------------------------------|

E|-------------------------------------------|
B|--7-5-7-4-7---7----------------------------|
G|------------6---4--------------------------|
D|-------------------------------------------|
A|-------------------------------------------|
E|-------------------------------------------|

E|-------------------------------------------|
B|-------------------------------------------|
G|--3-4-3-4-4/6------------------------------|
D|-------------------------------------------|
A|-------------------------------------------|
E|-------------------------------------------|

E|-------------------------------------------|
B|--5-4-2------------------------------------|
G|--------4----------------------------------|
D|-------------------------------------------|
A|-------------------------------------------|
E|-------------------------------------------|

E|---------4---------------------------------|
B|--4-5-7----7-5-4---------------------------|
G|------------------6-4-3--------------------|
D|-------------------------6-----------------|
A|-------------------------------------------|
E|-------------------------------------------|

E|--2p4-2------------------------------------|
B|--------4-4p5------------------------------|
G|-------------------------------------------|
D|-------------------------------------------|
A|-------------------------------------------|
E|-------------------------------------------|

E|-------------------------------------------|
B|-------------------------------------------|
G|--4-3-1------------------------------------|
D|--------1--1p2-----------------------------|
A|-------------------------------------------|
E|-------------------------------------------|

E|-------------------------------------------|
B|--------------4-5-4------------------------|
G|-----1-3-----------------------------------|
D|---4---------------------------------------|
A|-------------------------------------------|
E|-------------------------------------------|

E|-------2-----------------------------------|
B|----4-----5--------------------------------|
G|-4-----------------------------------------|
D|-------------------------------------------|
A|-------------------------------------------|
E|-------------------------------------------|

E|-------------------------------------------|
B|--2-4-5-4-2--------------------------------|
G|-------------------------------------------|
D|-------------------------------------------|
A|-------------------------------------------|
E|-------------------------------------------|

E|---------4---------------------------------|
B|--4-5-7----7-5-4---------------------------|
G|------------------6-4-3--------------------|
D|-------------------------6-----------------|
A|-------------------------------------------|
E|-------------------------------------------|
Composição de Frederico Cruz
524.895 exibições
    • ½ Tom
    • A
    • Bb
    • B
    • C
    • Db
    • D
    • Eb
    • E
    • F
    • F#
    • G
    • Ab
  • Adicionar à lista

    0 comentários

    Ver todos os comentários
    00:00 / 00:00
    outros vídeos desta música
    repetir qualidade Automático
    Outros vídeos desta música
    00:00 / 00:00
    Automático

    Cifra Club Pro

    Aproveite o Cifra Club com benefícios exclusivos e sem anúncios
    Cifra Club Pro
    Aproveite o Cifra Club com benefícios exclusivos e sem anúncios
    OK