Enviar cifraEntrar

Tudo É do Pai

Pe. Fábio de Melo

Cifra: Principal
exibições 356.351
Tom: B
Intro:

E|---------------------------------------------------|
B|------------------------------2-2-4p5-2------------|
G|--3p4-4-4-3-----3-1-1-1------------------3/4-4-4-3-|
D|------------3/4----------2-2-----------------------|
A|---------------------------------------------------|
E|---------------------------------------------------|


       B              F#/Bb        Abm    F#
Eu pensei que podia viver por mim mesmo
       E                   C#m
Eu pensei que as coisas do mundo
      F#              F#/Bb
Não iriam me derrubar
     B          F#/Bb         Abm   B
O orgulho tomou conta do meu ser
       E         C#m         F#7
E o pecado devastou o meu viver

       E              F#
Fui embora, disse ao Pai:
               Ebm    Abm
Dá-me o que é meu!
         C#m                    B7(9)
Dá-me a parte que me cabe da herança!
         E             F#                  Abm
Fui pro mundo, gastei tudo, me restou só o pecado
           E              F#
E hoje eu sei que nada é meu
           B   F#7
Tudo é do Pai.

           B
Tudo é do Pai!
      F#              Abm
Toda honra e toda a Glória,
  Ebm       E         C#m           F#   F#7
É dele a vitória alcançada em minha vida.
           B
Tudo é do Pai!
       F#/Bb       Abm
Se sou fraco e pecador,
          Ebm             E
bem mais forte é o meu Senhor
        F#         B   F#7
Que me cura por Amor!


E|-------------------------------------------|
B|-------------7--3p4------------------------|
G|-----3-3p4---------------------------------|
R|---6---------------------------------------|
A|-------------------------------------------|
E|-------------------------------------------|


E|-------------------------------------------|
B|------2------------------------------------|
G|--3-4----4-3-1-----------------------------|
R|----------------4--------------------------|
A|-------------------------------------------|
E|-------------------------------------------|


E|-------------------------------------------|
B|--7-5-7-4-7---7----------------------------|
G|------------6---4--------------------------|
R|-------------------------------------------|
A|-------------------------------------------|
E|-------------------------------------------|


E|-------------------------------------------|
B|-------------------------------------------|
G|--3-4-3-4-4/6------------------------------|
R|-------------------------------------------|
A|-------------------------------------------|
E|-------------------------------------------|


E|-------------------------------------------|
B|--5-4-2------------------------------------|
G|--------4----------------------------------|
R|-------------------------------------------|
A|-------------------------------------------|
E|-------------------------------------------|


E|---------4---------------------------------|
B|--4-5-7----7-5-4---------------------------|
G|------------------6-4-3--------------------|
R|-------------------------6-----------------|
A|-------------------------------------------|
E|-------------------------------------------|

E|--2p4-2------------------------------------|
B|--------4-4p5------------------------------|
G|-------------------------------------------|
R|-------------------------------------------|
A|-------------------------------------------|
E|-------------------------------------------|


E|-------------------------------------------|
B|-------------------------------------------|
G|--4-3-1------------------------------------|
R|--------1--1p2-----------------------------|
A|-------------------------------------------|
E|-------------------------------------------|


E|-------------------------------------------|
B|--------------4-5-4------------------------|
G|-----1-3-----------------------------------|
R|---4---------------------------------------|
A|-------------------------------------------|
E|-------------------------------------------|


E|-------2-----------------------------------|
B|----4-----5--------------------------------|
G|-4-----------------------------------------|
R|-------------------------------------------|
A|-------------------------------------------|
E|-------------------------------------------|


E|-------------------------------------------|
B|--2-4-5-4-2--------------------------------|
G|-------------------------------------------|
R|-------------------------------------------|
A|-------------------------------------------|
E|-------------------------------------------|


E|---------4---------------------------------|
B|--4-5-7----7-5-4---------------------------|
G|------------------6-4-3--------------------|
R|-------------------------6-----------------|
A|-------------------------------------------|
E|-------------------------------------------|
  • 1
  • 2
  • 3
  • 4
  • 5
  • 6
  • 7
  • 8
  • 9
  • 10
  • 11
  • 12
    Acordes para:

      0 comentários

        mostrar mais comentários

        Conseguiu tocar?

        13tocaram0ainda não

        Grave um vídeo tocando Tudo É do Pai e mande pra gente!

        00:00 / 00:00
        outros vídeos desta música
        repetirqualidadeautomática
        • automática
        Outro vídeos desta música
          00:00 / 00:00
          automática
          • automática
          Acordes para:violão e guitarra
          dificuldadeexibiçõescontribuições
          1 versão de Tab de baixoexibiçõescontribuições
          fecharplay/pause subir/descer velocidade
            acordes
            fechar
            OK
            Feedback