Cifra Club

História de Uma Gata

Pedra Letícia

Cifra: Principal (violão e guitarra)
Selo Cifra Club: esta cifra foi revisada para atender aos critérios oficiais da nossa Equipe de Qualidade.
tom: D
Esta é a tablatura do solo de violão durante toda a música:

Intro:
e|-----2-----2-----2-----2-|
B|-3-5---3-5---3-5---3-5---|
G|-------------------------|  (4x)
D|-------------------------|
A|-------------------------|
E|-------------------------|

Verso:
e|---------------12-14-14-12--|       e|---------------------------|
B|-----12-14-15---------------|       B|---------------------------|
G|-14-------------------------| (3x)  G|-14-14--12-12--11-11-------|
D|----------------------------|       D|----------------------14---|
A|----------------------------|       A|---------------------------|
E|----------------------------|       E|---------------------------|

e|---------------12-14-14-12--|
B|-----12-14-15---------------|
G|-14-------------------------| (3x)
D|----------------------------|
A|----------------------------|
E|----------------------------|

e|--------------------------------|       e|----------------------------------|
B|--------------------------------|       B|----------------------------------|
G|-14-14--12-12--11-11------------| (2x)  G|-14-14--12-12--11-11--------------|
D|----------------------14-14--12-|       D|----------------------14--12--14--|
A|--------------------------------|       A|----------------------------------|
E|--------------------------------|       E|----------------------------------|

Refrão:
e|--------------------------12-14-----15--14-12-14----12-14-12--|
B|----15-15--14-12-14-12-15--------15--------------15-----------|
G|-14-----------------------------------------------------------|
D|--------------------------------------------------------------|
A|--------------------------------------------------------------|
E|--------------------------------------------------------------|

e|-----------12-14-15-12-14-17--17-19-19--17-15-14-15-12-----|
B|----15-15----------------------------------------------15--|
G|-14--------------------------------------------------------|
D|-----------------------------------------------------------|
A|-----------------------------------------------------------|
E|-----------------------------------------------------------|

[Repete intro 4x.. PS.: As duas primeiras vezes utilizando Palm Mute em todas as notas]

[Repete verso]

[Repete refrão 2x]

Re-intro:
e|-----2-----2-----2-----2-|       e|-3-2-------2-3-2-------2-|
B|-3-5---3-5---3-5---3-5---|       B|-----5-3-5-------5-3-5---|
G|-------------------------| (3x)  G|-------------------------|
D|-------------------------|       D|-------------------------|
A|-------------------------|       A|-------------------------|
E|-------------------------|       E|-------------------------|

e|-----2-----2-----2-----2-|
B|-3-5---3-5---3-5---3-5---|
G|-------------------------| (4x)
D|-------------------------|
A|-------------------------| (Com Palm Mute!)
E|-------------------------|
00:00 / 00:00
Outros vídeos desta música
Repetir
Outros vídeos desta música
58.618 exibições
    • ½ Tom
    • A
    • Bb
    • B
    • C
    • Db
    • D
    • Eb
    • E
    • F
    • F#
    • G
    • Ab
  • Adicionar à lista

Afinação da cifra

Afinador online

    0 comentários

    Ver todos os comentários

    Entre para o Cifra Club PRO

    Tenha acesso a benefícios exclusivos no App e no Site

    • Chega de anúncios

    • Mais recursos no app do Afinador

    • Atendimento Prioritário

    • Aumente seu limite de lista

    • Ajude a produzir mais conteúdo

    00:00 / 00:00

    Cifra Club Pro

    Aproveite o Cifra Club com benefícios exclusivos e sem anúncios
    Cifra Club Pro
    Aproveite o Cifra Club com benefícios exclusivos e sem anúncios
    OK