Cifra Club

Canción a ti

Platero Y Tu

Cifra: Principal (violão e guitarra)
Selo Cifra Club: esta cifra foi revisada para atender aos critérios oficiais da nossa Equipe de Qualidade.
tom: D
E|-----------------5-7/9-91097--7-7-7-8-9----------9-7--7b8r7-------------------|
B|----------------5------------10---------10--7-7-10---10-----------------------|
G|-4/6-6764------6------------------------------9-------------------------------|
D|----------7-4-7---------------------------------------------------------------|
A|------------------------------------------------------------------------------|
E|------------------------------------------------------------------------------|

E|-----------------5-7/9-91097---------10------9-------109109---------109109----|
B|----------------5------------10-101210--101210---10-12---------10-12-------10-|
G|-4/6-6764------6---------------------------------9------------9---------------|
D|----------7-4-7---------------------------------------------------------------|
A|------------------------------------------------------------------------------|
E|------------------------------------------------------------------------------|
Outros vídeos desta música
    5 exibições
      • ½ Tom
      • A
      • Bb
      • B
      • C
      • Db
      • D
      • Eb
      • E
      • F
      • F#
      • G
      • Ab
    • Adicionar à lista

    Afinação da cifra

    Afinador online

      0 comentários

      Ver todos os comentários

      Entre para o Cifra Club PRO

      Tenha acesso a benefícios exclusivos no App e no Site

      • Chega de anúncios

      • Badges exclusivas

      • Mais recursos no app do Afinador

      • Atendimento Prioritário

      • Aumente seu limite de lista

      • Ajude a produzir mais conteúdo

      Cifra Club Pro

      Aproveite o Cifra Club com benefícios exclusivos e sem anúncios
      Cifra Club Pro
      Aproveite o Cifra Club com benefícios exclusivos e sem anúncios
      Ops (: Contenido disponible sólo en portugués.
      OK