Cifra Club

Lo que os merecéis

Platero Y Tu

Cifra: Principal (violão e guitarra)
Selo Cifra Club: esta cifra foi revisada para atender aos critérios oficiais da nossa Equipe de Qualidade.
tom: Em
Intro
E|--------------------------------------------------|
B|--------------------------------------------------|
G|--------------------------------------------------|
D|--------------------------------------------------|
A|----------2---------------2----------------2------|
E|-0--0-2-3---3-2--0--0-2-3---3-2---0--0-2-3---3-2--|

E|---------------------|
B|---------------------|
G|---5555---777---9----| x3
D|---5555---777---9----|
A|---3333---555---7----|
E|---------------------|

E|--------------------------------------|
B|--------------------------------------|
G|--9------7--------------5---7---9-----|
D|--9------7------7-------5---7---9-----|
A|--7------5------7-------3---5---7-----|
E|----------------5---------------------|
        Mirar, hablar herir
E|----------------------------------------|
B|----------------------------------------|
G|----------7-----------------------------|
D|----------7--------7--------------------|
A|----------5--------7--------------------|
E|-------------------5-------8-7-5-10-8-7-|
    ansiar, no hacer, joder.
E|---------------------------------------------------|
B|--------------------------------8---7---5----------|
G|-----------------7--------------7---6---4---7---5--|
D|--10-------------7--------------5| —--4---2---7---5--|
A|--10-------------5--------------------------5---3--|
E|--8------------------------------------------------|
p.m.  ............   ............                  .....
   La mentira que vendes, amigo,  no  se tiene en pie
E|-------------------------------------------------------|
B|-------------------------------------------------------|
G|------------7------------------------------------------|
D|------------7----------------------9-7------7--------9-|
A|------------5--------------------------10-9---10-9-7-9-|
E|-----------------------------------------------------7-|
p.m..........  .....................
 sé que todos vosotros siempre tendreis...
Lo que os mereceis!!

Intro x2

Vivir, luchar, crear
no os va bien
romper, sin un porqué.
Vuestra divisa es ocre y por donde andais no huele bien
gracias a vuestra envidia siempre tendreis
Lo que os mereceis!!

E|------------------------------|
B|------------------------------|
G|-------------------5---7---9--|
D|-2-----2-----2-----5---7---9--|
A|-2-----2-----2-----3---5---7--|
E|-0-----0-----0----------------|

Intro x2
E|---------------------------|
B|-------------12------------|
G|---9-9-11-12----12-11-9----| hace esto 16 veces
D|---------------------------| mu rapido y después unos solillos
A|---------------------------| k no he sakao por k no se tocar
E|---------------------------| tan rapido...



...le podeis buscar vueltas
no tengo nada que esconder
yo os voy a demostrar que lo que teneis es...
Lo que os mereceis
Outros vídeos desta música
    17 exibições
      • ½ Tom
      • Am
      • Bbm
      • Bm
      • Cm
      • C#m
      • Dm
      • Ebm
      • Em
      • Fm
      • F#m
      • Gm
      • G#m
    • Adicionar à lista

    Afinação da cifra

    Afinador online

      0 comentários

      Ver todos os comentários

      Entre para o Cifra Club PRO

      Tenha acesso a benefícios exclusivos no App e no Site

      • Chega de anúncios

      • Badges exclusivas

      • Mais recursos no app do Afinador

      • Atendimento Prioritário

      • Aumente seu limite de lista

      • Ajude a produzir mais conteúdo

      Cifra Club Pro

      Aproveite o Cifra Club com benefícios exclusivos e sem anúncios
      Cifra Club Pro
      Aproveite o Cifra Club com benefícios exclusivos e sem anúncios
      Ops (: Contenido disponible sólo en portugués.
      OK