Cifra Club

Marabao

Platero Y Tu

Cifra: Principal (violão e guitarra)
Selo Cifra Club: esta cifra foi revisada para atender aos critérios oficiais da nossa Equipe de Qualidade.
tom: E
                   A  D         A  D
e||--------------|--------------||
B||--------------|--------------||
G||--------------|----7-------7-||
D||--------------|-7--7----7--7-||
A||-5-5-5-5-5----|-7--5----7--5-||
E||--------------|-5-------5----||
   (se repite
    unas 15 veces)

     A  G       G    G    G    G    G    G    G    G     A  D
e||-------|--------------------------------------------|------||
B||-------|--------------------------------------------|------||
G||-------|--------------------------------------------|----7-||
D||--7--5-|--------------------------------------------|-7--7-||
A||--7--5-|-----5----5----5----5----5----5----5----5---|-7--5-||
E||--5--3-|-----3----3----3----3----3----3----3----3---|-5----||
            P.M
                Iñaki Marabao siempre es un tio legal

     A  G       G    G    G    G    G    G    G    G     A  D
e||-------|--------------------------------------------|------||
B||-------|--------------------------------------------|------||
G||-------|--------------------------------------------|----7-||
D||--7--5-|--------------------------------------------|-7--7-||
A||--7--5-|-----5----5----5----5----5----5----5----5---|-7--5-||
E||--5--3-|-----3----3----3----3----3----3----3----3---|-5----||
            P.M

                nunca con un colega se enrollo nada mal

     A    B     B      B      G     G     G        A  D
e||----------------------------------------------|------||
B||----------------------------------------------|------||
G||-------4-----4------4-------------------------|----5-||
D||--7----4-----4------4------5-----5-----5------|-5--5-||
A||--7----2-----2------2------5-----5-----5------|-5--7-||
E||--5------------------------3-----3-----3------|-7----||
      trapicheando el speed lograba sobrevivir



     A    B     B      B      G     G     G        A  D   A  D   A  D   A  D
e||----------------------------------------------|---------------------------||
B||----------------------------------------------|---------------------------||
G||-------4-----4------4-------------------------|----5------5------5------5-||
D||--7----4-----4------4------5-----5-----5------|-5--5---5--5---5--5---5--5-||
A||--7----2-----2------2------5-----5-----5------|-5--7---7--7---5--7---5--7-||
E||--5------------------------3-----3-----3------|-7------7------7------7----||
      y entre eso y algun golpe perdio media nariz


     A  G       G    G    G    G    G    G    G    G     A  D
e||-------|--------------------------------------------|------||
B||-------|--------------------------------------------|------||
G||-------|--------------------------------------------|----7-||
D||--7--5-|--------------------------------------------|-7--7-||
A||--7--5-|-----5----5----5----5----5----5----5----5---|-7--5-||
E||--5--3-|-----3----3----3----3----3----3----3----3---|-5----||  
            P.M
                encontrarle borracho era lo mas normal


     A  G       G    G    G    G    G    G    G    G     A  D
e||-------|--------------------------------------------|------||
B||-------|--------------------------------------------|------||
G||-------|--------------------------------------------|----7-||
D||--7--5-|--------------------------------------------|-7--7-||
A||--7--5-|-----5----5----5----5----5----5----5----5---|-7--5-||
E||--5--3-|-----3----3----3----3----3----3----3----3---|-5----||
            P.M
                siempre algo te quitaba algo te podia dar


     A    B     B      B      G     G     G        A  D
e||----------------------------------------------|------||
B||----------------------------------------------|------||
G||-------4-----4------4-------------------------|----5-||
D||--7----4-----4------4------5-----5-----5------|-5--5-||
A||--7----2-----2------2------5-----5-----5------|-5--7-||
E||--5------------------------3-----3-----3------|-7----||
      un dia en una pelea alguien le pincho mal


     A    B     B      B      G     G     G        A  D   A  D   A  D   A  D
e||----------------------------------------------|---------------------------||
B||----------------------------------------------|---------------------------||
G||-------4-----4------4-------------------------|----5------5------5------5-||
D||--7----4-----4------4------5-----5-----5------|-5--5---5--5---5--5---5--5-||
A||--7----2-----2------2------5-----5-----5------|-5--7---7--7---5--7---5--7-||
E||--5------------------------3-----3-----3------|-7------7------7------7----||
      y se llevo por delante a un presonaje genial

     A   G    A   D    A   G    A   D
e||-----------------------------------||
B||-----------------------------------||
G||---------------7-----------------5-||
D||--7---5----7---7----7---5----7---5-||
A||--7---5----7---5----7---5----7---7-||

     A  D   A  D   A  D                        A  D
e||---------------------------------------------------------------------||
B||---------------------------------------------------------------------||
G||-----7------7------7---------------------------7---------------------||
D||--7--7---7--7---7--7------------------------7--7---------------------||
A||--7--5---7--5---7--5--5-5-5-5-5-5-5-5-5-5---7--5--5-5-5-5-5-5-5-5-5--||
E||--5------5------5---------------------------5------------------------||
                     pero antes de palmar         tuvo tiempo de largar


   A            G            A             B            G
e||---------------------------------------------------------------||
B||---------------------------------------------------------------||
G||----------------------------------------4----------------------||
D||7------------5------------2-------------4------------5---------||
A||7------------3------------2-------------2------------5---------||
E||5------------3------------0--------------------------3---------||


no vallais A E  entierro  ni con flores ni con velas ni con dios

                          A  D
e||-----------------------------||
B||---------- ------------------||
G||--------------------------7--||
D||-----------------------7--7--||
A||-----------------------7--5--||
E||-----------------------5-----||
  id con un buen moron!!
    A E                       D       G            D         G
e||------------------------------------------------------------||
B||------------------------------------------------------------||
G||---9-----------------------7--------------------7-----------||
D||-7-9-----------------------7-------5------------7---------5-||
A||-7-7-----------------------5-------5------------5---------5-||
E||-5---------------------------------3----------------------3-||
   nunca trago a los curas ni voto ni la madera le siguio
Outros vídeos desta música
    8 exibições
      • ½ Tom
      • A
      • Bb
      • B
      • C
      • Db
      • D
      • Eb
      • E
      • F
      • F#
      • G
      • Ab
    • Adicionar à lista

    Afinação da cifra

    Afinador online

      0 comentários

      Ver todos os comentários

      Entre para o Cifra Club PRO

      Tenha acesso a benefícios exclusivos no App e no Site

      • Chega de anúncios

      • Badges exclusivas

      • Mais recursos no app do Afinador

      • Atendimento Prioritário

      • Aumente seu limite de lista

      • Ajude a produzir mais conteúdo

      Cifra Club Pro

      Aproveite o Cifra Club com benefícios exclusivos e sem anúncios
      Cifra Club Pro
      Aproveite o Cifra Club com benefícios exclusivos e sem anúncios
      Ops (: Contenido disponible sólo en portugués.
      OK