Cifra Club

Rock n'Roll

Platero Y Tu

Cifra: Principal (violão e guitarra)
Selo Cifra Club: esta cifra foi revisada para atender aos critérios oficiais da nossa Equipe de Qualidade.
tom: Cm
Gitarra 1- Punteo 1
E|------------------------------|------------------------------|
B|------------------------------|------------------------------|
G|------------------------------|------------------------------|
D|-------1-3^-3-1p3h1p3h1-------|-------1-3^-3-1p3h1p3h1-------|
A|---1h3------------------3--1--|---1h3------------------3-1-3-|
E|------------------------------|------------------------------|

2 veces hasta que entra la segunda guitarra

Guitarra 2
E|-----------------------------------|-----------------------------------|
B|-----------------------------------|-----------------------------------|
G|--------8-10^-10-8p10h8p10h8-------|------8-10^-10-8p10h8p10h8---------|
D|---8h10----------------------10--8-|--8h10---------------------10-8-10-|
A|-----------------------------------|-----------------------------------|
E|-----------------------------------|-----------------------------------|

Cm                                                Punteo1
   Hey estate al loro que empieza el rock n'roll

Cm                                          Punteo1
    Güan for de money and chu for de show.

Cm                                          Punteo1
    Cuatro tios locos que no pueden parar

Cm                                          Punteo1
    Cuatro ritmos locos, cuatro copas de mas


Estribillo

Cm       Cm  Abm  Fm 
    DALE!              Que ya empieza

Cm       Cm  Abm  Fm 
    DALE!              Que comienza

Cm       Cm  Abm  Fm 
    DALE!              Que ya empieza

Cm       Cm  Abm  Fm 
    DALE!              Que comienza




Ahora se toca el punteo del principio
dos veces las dos guitarras a la vez.




Cm                                         Punteo1
   Que llegamos tarde pisale un poco mas

Cm                                              Punteo1
    Que el concierto empieza sin nosotros alla

Cm                                         Punteo1
    Tu no te preocupes si no hay velocidad

Cm                                              Punteo1
     Tu no te preocupes que la haremos entrar



ESTRIBILLO
 Aqui solo cambia el dale por corre.


Solo(Sin acompañamiento,hasta la mitad que acompaña
con unos golpes de Cm  seguidos del esquema de Cm ,Abm ,Fm 
y continua acompañando por el punteo 1)
Outros vídeos desta música
    9 exibições
      • ½ Tom
      • Am
      • Bbm
      • Bm
      • Cm
      • C#m
      • Dm
      • Ebm
      • Em
      • Fm
      • F#m
      • Gm
      • G#m
    • Adicionar à lista

    Afinação da cifra

    Afinador online

      0 comentários

      Ver todos os comentários

      Entre para o Cifra Club PRO

      Tenha acesso a benefícios exclusivos no App e no Site

      • Chega de anúncios

      • Badges exclusivas

      • Mais recursos no app do Afinador

      • Atendimento Prioritário

      • Aumente seu limite de lista

      • Ajude a produzir mais conteúdo

      Cifra Club Pro

      Aproveite o Cifra Club com benefícios exclusivos e sem anúncios
      Cifra Club Pro
      Aproveite o Cifra Club com benefícios exclusivos e sem anúncios
      Ops (: Contenido disponible sólo en portugués.
      OK