Cifra Club

Si miro a las nubes

Platero Y Tu

Cifra: Principal (violão e guitarra)
Selo Cifra Club: esta cifra foi revisada para atender aos critérios oficiais da nossa Equipe de Qualidade.
tom: Dm
  Intro:
E|------------------------------------------------------------------|
B|----------------------------------------------6--6| &8*/2-----------|
G|-------------5--5| &8--5--5&7--5------5--7--7&8---------------------|
D|--/5*/2---7--------------------5----------------------------------|
A|------------------------------------------------------------------|
E|------------------------------------------------------------------|

E|------------------------------------------------------------------|
B|--8--6------------------------------------------------------------|
G|--------8--7--7| &8--5--7--5------------5--5&7--7--5----------------|
D|----------------------------5------7----------------5*/2----------|
A|------------------------------------------------------------------|
E|------------------------------------------------------------------|

E|------------------------------------------------------------------|
B|---------------------------------------6--6--------6----------6---|
G|------5--5| &8--5--5&7--5------5--7--7&8-------7*/2-----8--7&8------|
D|---7--------------------5-----------------------------------------|
A|------------------------------------------------------------------|
E|------------------------------------------------------------------|

E|------------------------------------------------------------------|
B|-----------------------------5------------------------------------|
G|--7--8--5------------5---7-------5*/2-----------------------------|
D|-----------5-----7------------------------------------------------|
A|------------------------------------------------------------------|
E|------------------------------------------------------------------|



  Punteo1:
E|----------------------------|
B|----------------------------|
G|----------------------------|
D|-----------3--1--1--0| &1&0---|
A|-----0--3-------------------|
E|--1-------------------------|



  Punteo2:
E|----------------------------|
B|----------------------------|
G|----------------------------|
D|----------------------------|
A|-----0--3--1--0| &1-----------|
E|--1----------------1--------|



  Solo1:
E|------------------------------------------------------------------|
B|-15--11-------13*-13^---------------------------------------------|
G|---------12-------------12--14--15--14| &15&14&12-------12----------|
D|-------------------------------------------------15------10*--10--|
A|------------------------------------------------------------------|
E|------------------------------------------------------------------|

E|-15--13--13/15---13-----------------------------------------------|
B|----------------------------------------13------13*-13*-13--------|
G|----------------------14^---12--14--15------15--------------------|
D|------------------------------------------------------------------|
A|------------------------------------------------------------------|
E|------------------------------------------------------------------|




  Riff1:
       Este riff son las siguientes quintas, no os pongo cuando
se toca porque lo vereis mas claro en la estructura. El A#5, os
recomiendo que lo toqueis en la cuerda 5 para mas comodidad pero
es totalmente indiferente (en este caso) si lo haceis en la 6 o
A  5.
            G5      .A#5      G5      F5




  Estructura:
* Atención, las quintas que van precedidas de un punto (pe .F5) se
  tocan una octava más abajo (5a cuerda).

Intro
Riff1 (x2)
Riff1+Punteo1  Riff1+Punteo2 (x3)

Riff1+Punteo1        Riff1+Punteo2
Voy a salir por ahí; ahora que ya se ha ido el sol.
Riff1+Punteo1            Riff1+Punteo2
¿Sabes? Me acuerdo de ti cuando oigo aquella canción,
.C5              F5                   G5
y aún recuerdo el olor a serrín en aquel viejo bar.
.C5                 F5               .A#5                     .D5
Vino blanco mezclado con mistela... Así aprendimos a volar.

.A#5 F5 G5 F5 .A#5        .C5             .D#5            .F5
     Pero hoy       no nos queda ilusión y los sueños se pudren.
G5 F5 .A#5        F5            .C5              .F5
Hoy         ya no veo figuras si miro a las nubes.
G5 F5 .A#5        .C5            .D#5            .F5
     Hoy,   que nos contaminaron con algo asqueroso.
G5 F5 .A#5        F5            .C5              .F5          A5
     Hoy,   con rencor, con poder, con dinero y con odio.


|Gtr1:      Riff1+Punteo1      Riff1+Punteo2
|Gtr2:  Solo1


Riff1+Punteo1           Riff1+Punteo2
Y aquel viejo profesor que nunca supo explicar
Riff1+Punteo1          Riff1+Punteo2
la verdadera lección. Si lo pudiera encontrar...
.C5              F5                   G5
Y aún recuerdo el olor a serrín en aquel viejo bar.
.C5                 F5               .A#5                     .D5
Vino blanco mezclado con mistela... Allí aprendimos a volar.
Outros vídeos desta música
    80 exibições
      • ½ Tom
      • Am
      • Bbm
      • Bm
      • Cm
      • C#m
      • Dm
      • Ebm
      • Em
      • Fm
      • F#m
      • Gm
      • G#m
    • Adicionar à lista

    Afinação da cifra

    Afinador online

      0 comentários

      Ver todos os comentários

      Entre para o Cifra Club PRO

      Tenha acesso a benefícios exclusivos no App e no Site

      • Chega de anúncios

      • Badges exclusivas

      • Mais recursos no app do Afinador

      • Atendimento Prioritário

      • Aumente seu limite de lista

      • Ajude a produzir mais conteúdo

      Cifra Club Pro

      Aproveite o Cifra Club com benefícios exclusivos e sem anúncios
      Cifra Club Pro
      Aproveite o Cifra Club com benefícios exclusivos e sem anúncios
      Ops (: Contenido disponible sólo en portugués.
      OK