Cifra Club

Un abecedario sin letras

Platero Y Tu

Cifra: Principal (violão e guitarra)
Selo Cifra Club: esta cifra foi revisada para atender aos critérios oficiais da nossa Equipe de Qualidade.
tom: D
INTRODUCCIÓN

Guitarra 1 (Iñaki)

E|-----------------------------------------------|
B|-----------------------------------------------|
G|-----------------------------------------------| x3
D|---------4-4-----------------------------------|
A|-2-2-5-5-----5-0-0-0-0-5-4-0-------------------|
E|-----------------------------------------------|

E|-----------------------------------------------|
B|-----------------------------------------------|
G|-----------------------------------------------| x1
D|---------4-4-----------------------------------|
A|-2-2-5-5-----5-0-0-0-0-5-4-0~------------------|
E|-----------------------------------------------|

*Se puede pasar el 5 de la 5ª cuerda a la cuerda 4 al aire.

Guitarra 2  (Fito)

E|-----------------------------------------------|
B|-----------------------------------------------|
G|-----------------------------------------------| x2
D|-----------------------------------------------|
A|-----------------------------------------------|
E|-----------------------------------------------|

E|-----------------------------------------------|
B|-----------------------------------------------|
G|-4-4-4-4-4-4-4-4---2-2---2-2-------------------| x1
D|-2-2-4-4-4-4-4-4---2-2---2-2-------------------|
A|-2-2-2-2-2-2-2-2---0-0---0-0-------------------|
E|-----------------------------------------------|

E|-----------------------------------------------|
B|-----------------------------------------------|
G|-4-4-4-4-4-4-4-4---2~~-------------------------| x1
D|-2-2-4-4-4-4-4-4---2~~-------------------------|
A|-2-2-2-2-2-2-2-2---0~~-------------------------|
E|-----------------------------------------------|

* Las dos primeras veces de la intro no hace nada.
* Los acordes son B  y A , asi q los podeis hacer de otra forma.
  Yo los hago asi y me suena bien.

VERSO

Gitarra 1  (Iñaki)

E|-----------------------------------------------|
B|--------2-2------------------------------------|
G|-4-4----2-2------------------------------------|
D|-4-4----2-2-----------4-4----------------------| x3
A|-2-2----0-0-----2-2-5-5-----5-0-0-0-0-5-4-0----|
E|-----------------------------------------------|

E|-----------------------------------------------|
B|--------2-2------------------------------------|
G|-4-4----2-2------------------------------------|
D|-4-4----2-2-----------4-4----------------------| x1
A|-2-2----0-0-----2-2-5-5-----5-0-0-0-0-5~~~~----|
E|-----------------------------------------------|


Guitarra 2  (Fito)

E|----------------------------------------------------------------------|
B|------------------------2-2-2-2-2-2-2-2-2-2-2------------2-2-2-2-2----|
G|-4-4-4-4-4-4-4-4-4-4-4--2-2-2-2-2-2-2-2-2-2-2--4-4-4-4-4-2-2-2-2-2----|
D|-4-4-4-4-4-4-4-4-4-4-4--2-2-2-2-2-2-2-2-2-2-2--4-4-4-4-4-2-2-2-2-2----|
A|-2-2-2-2-2-2-2-2-2-2-2-------------------------2-2-2-2-2--------------|
E|----------------------------------------------------------------------|

"Tengo dos dedos de frente, y nunca uso los dos..."

* Los dos primeros acordes son para cuando canta,
  y los otros dos se hacen antes de que cante.
  Se repite esto 4 veces y luego al estribillo.

* Los acordes son B  y A , asi q los podeis hacer de otra forma.
  Yo los hago asi y me suena bien. Estos acordes se hacen con un
  ritmo reaggee o algo asi.


ESTRIBILLO

Gutarras 1 y 2. las dos hacen lo mismo.

E|-------------------------------------|
B|-7-7-7-7-7-7-7-7---------------------|
G|-7-7-7-7-7-7-7-7-7-7-7-7-7-7-7-7-----| x3
D|-5-5-5-5-5-5-5-5-7-7-7-7-7-7-7-7-----|
A|-----------------5-5-5-5-5-5-5-5-----|
E|-------------------------------------|

"pero tu, tu, tu, mirame a la cara"
"pero tu, tu, tu, no me des la espalda"
"pero tu, tu, tu,¿que piensas de mi?"


E|-------------------------------------|
B|-------------------------------------|
G|-------------------------------------|
D|-5----------------5------------------|
A|-5----------------3------------------|
E|-3----------------3------------------|

"Soy un bicho raro, un pequeño diablo"


E|-------------------------------------|
B|-------------------------------------|
G|-------------------------------------|
D|----3-3-3-3-3-3-3-3-3----------------|
A|----3-3-3-3-3-3-3-3-3----------------|
E|----1-1-1-1-1-1-1-1-1----------------|
Outros vídeos desta música
    45 exibições
      • ½ Tom
      • A
      • Bb
      • B
      • C
      • Db
      • D
      • Eb
      • E
      • F
      • F#
      • G
      • Ab
    • Adicionar à lista

    Afinação da cifra

    Afinador online

      0 comentários

      Ver todos os comentários

      Entre para o Cifra Club PRO

      Tenha acesso a benefícios exclusivos no App e no Site

      • Chega de anúncios

      • Badges exclusivas

      • Mais recursos no app do Afinador

      • Atendimento Prioritário

      • Aumente seu limite de lista

      • Ajude a produzir mais conteúdo

      Cifra Club Pro

      Aproveite o Cifra Club com benefícios exclusivos e sem anúncios
      Cifra Club Pro
      Aproveite o Cifra Club com benefícios exclusivos e sem anúncios
      Ops (: Contenido disponible sólo en portugués.
      OK