Cifra Club

Aprenda

Não Ficaria Até Tão Tarde Se Não Fosse Importante

Pull Down

Cifra: Principal (violão e guitarra)
tom: D
intro  
Base -> D A Bm G
Solo
|--5---------------5------------------------|
|----5-7-5---5-5-7---5-7-5------------------|
|--------------------------7----------------| x3
|----------------------------7--------------|
|-------------------------------------------|
|-------------------------------------------|

|--5-------------5---------------|
|----5-7-5---5-5-----------------|
|--------------------------------| 
|--------------------------------|
|--------------------------------|
|--------------------------------|

D
preciso ter mais você
B
sentir mais do que apenas estar
A                       G
tente ser algo mais e não apenas mais uma

B G D A
algum esforço pra fazer sorrir
nenhuma palavra pra fazer chorar
coloque a cabeça em meu peito e diga o que está sentindo
G A|- D A G
vou pensar e te ajudar, fazer carinho

D
se ouvir as batidas do meu coração
B
saiba que é por você
A
e se um dia ele párar de bater
G|- A
lembre se que um dia ele bateu só por você

esqueça se te fiz sofrer
se aconteceu é por que não devia te ter
tenho muito pra te dizer
meu mundo pra te dar

B G D A
se estou com você
é com você que quero estar
não teria por que te enganar
G A|- D A G
e me ofende quando duvida que posso te amar

D
se ouvir as batidas do meu coração
B
saiba que é por você
A
e se um dia ele párar de bater
G  A
lembre se que um dia ele bateu só por você  2x
   
Composição de Jonas / Paula G
Colaboração e revisão:
  • felipe
17.069 exibições
    • ½ Tom
    • A
    • Bb
    • B
    • C
    • Db
    • D
    • Eb
    • E
    • F
    • F#
    • G
    • Ab
  • Adicionar à lista

    0 comentários

    Ver todos os comentários

    Conseguiu tocar?

    0 Tocaram 0 Ainda não

    Grave um vídeo tocando Não Ficaria Até Tão Tarde Se Não Fosse Importante e nos envie!

    00:00 / 00:00
    Outros vídeos desta música
    Repetir Qualidade Automático
    Outros vídeos desta música
    00:00 / 00:00
    Automático

    Cifra Club Pro

    Aproveite o Cifra Club com benefícios exclusivos e sem anúncios
    Cifra Club Pro
    Aproveite o Cifra Club com benefícios exclusivos e sem anúncios
    OK