Cifra Club

Aprenda

Eyes Of a Stranger

Queensrÿche

Cifra: Principal (violão e guitarra)
tom: F
Intro:                                                         vol. up
e|----------------------------------------------------------------------|
B|----------------------------------------------------------------------|
G|----------------------------------------------------------------------|
D|-2-------4--------5-------4-------2-------4------5--------7-----------|
A|------------------------------------------------------------------~0--|
E|------------------------------------------------------------------~5--|

Intro:
e|------7-----5-----2-----3------------7-----5-----2-----3-----5--|
B|---0-----0-----0-----0--1---3-----0-----0-----0-----0--1-----3--|
G|----------------------------0-----------------------------------|
D|----------------------------------------------------------------|
A|----------------------------------------------------------------|
E|----------------------------------------------------------------|

Vol. swell  section played with Harmonizer in E minor
e|-------------------------------------------------5h8--7--5------------------|
B|--5-------5---7b(8)------8b(10)---7---5---7--8-------------10--8--7--10--8--|
G|---------------------5------------------------------------------------------|
D|----------------------------------------------------------------------------|
A|----------------------------------------------------------------------------|
E|----------------------------------------------------------------------------|

e|--------------------------------------------|
B|--7--8--7--5--------------------------------|
G|--------------7--5--4--5--4--2--5--4--2-----|
D|-----------------------------------------2--|
A|-----------------------------------------2--|
E|-----------------------------------------0--|

All alone now . . .                           end #1  end #2
e|--0----------0-------------0----------0----|--0----|-0----0------0----0-----|
B|--0----------0-------0h2---0----------0----|--2h3-*|-0------0----0------0---|
G|--2----------1-------1-----2----------1----|-------|-2--------2--2--------1-|
D|--4----------2-------------4----------2----|-------|-4-----------1----------|
A|-------------------------------------------|------*|------------------------|
E|---------0------------------------0--------|-------|------------------------|
don't play end # 1 3rd time

Chorus
e|-------------------------------------------------------------------------------|
B|------3----------------------------------------------------------3-------------|
G|--5------5--------------------------4--2---------4-------------5---5--------7--|
D|--5---------4------5--4------2--2---2--0---------2----4---7----5-------4----7--|
A|--3------------3---------5---2--2----------------2----5--------3-----3---3--5--|
E|-----------------------------0--0----------0-0------0--------------------------|

End #1
e|-------------------------------------------|
B|-------------------------------------------|
G|----9-------------2h4----------------------|
D|-/--9-------------0--------2----------4--5-|
A|----7-------------0--------2----------5--5-|
E|----0--------0-0-------0-0------0-0--------|

Is this all that's left . . .
e|-------------------------------------------------------------------------|
B|-------------------------------------------------------------------------|
G|----9--------------------------------------------------------------------|
D|-/--9--------7h9-----10-------7------9--------7h9-----10-------7------9--|
A|----7--------7-------7--------9------7--------7-------7--------9------7--|
E|----0----0-0-----0-0------0-0----0-0------0-0-----0-0------0-0----0-0----|

e|--------------------------|
B|--------------------------|
G|--------------------------|
D|-----10-----0--------9h10-|
A|-----7------9--------9----|
E|-0-0----0-0------0-0------|

Pre-solo riff
e|-----------------7--0-----0-----0--0--------0-----0--0--0--|
B|-----------------------7-----8-----5--/--7-----5-----1--0--|
G|--2--------------------------------------------------------|
D|--2----------4---------------------------------------------|
A|--0----------2---2-----------------------------------------|
E|-----------------0-----------------------------------------|

Ultimate Guitar Solo
e|---------------------------------------------------|
B|---------------------------------------------------|
G|---------------------------------------------------|
D|---------------------------------------------------|
A|--5/7-----7--7---5----9-----9--9---10--9--x--x--7--|
E|---------------------------------------------------|

e|------------------------------------------------------------------------------------|
B|------------------------------------------------------------------------------------|
G|--------------------------------------7h9---12-12-12-11-9~~~~----12b(14)r(11)h12p11-|
D|------------------------------------------------------------------------------------|
A|-5/7----12b(14)--12-----14p12p9~~~~-------------------------------------------------|
E|------------------------------------------------------------------------------------|

e|----------------------------/10----------------------------------------------|
B|---------------------------------12-11-12-11---10--8-----10--10p8p7h8p7---7--|
G|------7h9---12-11-12-11-9-----------------------------9-----------------9----|
D|--10-------------------------------------------------------------------------|
A|-----------------------------------------------------------------------------|
E|-----------------------------------------------------------------------------|

Harmonizer in Gm
e|-----------------------------------------------------------------|
B|-----------------------------------------------------------------|
G|--9--11--12v--5--7b9r7--7--9--11--12---14--14--12--11--12--14~~--|
D|-----------------------------------------------------------------|
A|-----------------------------------------------------------------|
E|-----------------------------------------------------------------|

e|--/15--15--14--12--12--14b(15)r(14)--8--10b(12)r(12)--10--12~~--14--15~~--|
B|--------------------------------------------------------------------------|
G|--------------------------------------------------------------------------|
D|--------------------------------------------------------------------------|
A|--------------------------------------------------------------------------|
E|--------------------------------------------------------------------------|

e|--15-17-15-14-15-14-12-14-12-10-12-10-9-10-9-7-9-10----------------|
B|----------------------------------------------------10p8p7---------|
G|-----------------------------------------------------------7~~~~~--|
D|-------------------------------------------------------------------|
A|-------------------------------------------------------------------|
E|-------------------------------------------------------------------|

How many times....
e|----------------------------------------------------------------------|
B|----------------------------------------------------------------------|
G|--4--------5----2-------4---------------------------------------------|
D|--4--------5----2-------4---2--4---------------7---9---7---5----------|
A|--2--------3----0-------2---2----3---5---5-----7---7---7---5---5---5--|
E|-------------------------------------3---2-----5---5---5---3---2---0--|

Why am I here...
e|------------------------------|
B|------------------------------|
G|------------------------------|
D|--7--------7-----5---------5--|
A|--7--------7-----5----2----5--|
E|--5--------5--\--3----0----3--|

final riff of the album- do while repeating various riffs from other songs
e|----------------------------------------------------------------------------------------|
B|----------------------------------------------------------------------------------------|
G|-----------------------------------------------------------------12--11-12--14--12--14--|
D|---------------------------------------------7b(9)r(7)~~----9----10--9--10--12--10--10--|
A|-5--7--7-7--5--7--7-7--5--7--7-7--5--7--7-7--------------7------------------------------|
E|----------------------------------------------------------------------------------------|
Composição de Chris DeGarmo / Geoff Tate
Colaboração e revisão:
  • Ivan Neto
2.980 exibições
    • ½ Tom
    • A
    • Bb
    • B
    • C
    • Db
    • D
    • Eb
    • E
    • F
    • F#
    • G
    • Ab
  • Adicionar à lista

    0 comentários

    Ver todos os comentários

    Conseguiu tocar?

    0 Tocaram 0 Ainda não

    Grave um vídeo tocando Eyes Of a Stranger e nos envie!

    00:00 / 00:00
    outros vídeos desta música
    repetir qualidade Automático
    Outros vídeos desta música
    00:00 / 00:00
    Automático

    Cifra Club Pro

    Aproveite o Cifra Club com benefícios exclusivos e sem anúncios
    Cifra Club Pro
    Aproveite o Cifra Club com benefícios exclusivos e sem anúncios
    OK