Cifra Club

Aprenda

Any Way You Want It

Ramones

Tab de baixo: Principal
Intro:

g|----------
d|----------
a|--7-------
e|----------


Verse1:

g|------------------------------------------------------------------
d|------------------------------------------------------------------
a|--7-7-7-7-7-7-7-7-----------------7-7-7-7-7-7-7-7-----------------
e|------------------9-9-9-9-9-9-9-9-----------------9-9-9-9-9-9-9-9-

g|------------------------------------------------------------------
d|------------------------------------------------------------------
a|--7-7-7-7-7-7-7-7-----------------7-7-7-7-7-7-7-7-----------------
e|------------------9-9-9-9-9-9-9-9-----------------9---------------


Bridge:

g|---------------------------------------------------------------------
d|---------------------------------------------------------------------
a|---------------------------------------------------------------------
e|--0-0-0-0-0-0-0-0--4-4-4-4-4-4-4-4--7-7-7-7-7-7-7-7--9-9-9-9-9-9-9-9-


Refrain:

g|-------------------------------------------------------------------
d|-------------------------------------------------------------------
a|-----------------------------------7-7-7-7-7-7-7-7-7---------------
e|--9-9-9-9-9-9-9-9--7-7-7-7-7-7-7-7-------------------7-7-7-7-7-7-7-


Verse2:

g|-----------------------------------------------------------------------------------
d|-----------------------------------------------------------------------------------
a|-----------------------------------------------------------------------------------
e|--10-10-10-10-10-10-10-10-10-10-10-10-10-10-10-10--5-5-5-5-5-5-5-5-5-5-5-5-5-5-5-5-

g|---------------------------------------------------------------------------------------------------
d|---------------------------------------------------------------------------------------------------
a|-------------------------------------------------------------------7-7-7-7-7-7-7-7-7-7-7-7-7-7-7-7-
e|--10-10-10-10-10-10-10-10-10-10-10-10-10-10-10-10--7-7-7-7-7-7-7-7---------------------------------


End:

g|------------------------------------------------------------------------------------
d|------------------------------------------------------------------------------------
a|-----------------------------------7-7-7-7-7-7-7-7------------------7-7-7-7-7-7-7-7-
e|--9-9-9-9-9-9-9-9--7-7-7-7-7-7-7-7-----------------5-5-5-5--7-7-7-7-----------------

g|-----------------------------------------------------------------------------------
d|-----------------------------------------------------------------------------------
a|-----------------7-7-7-7-7-7-7-7------------------7-7-7-7-7---(let the 7 die away)-
e|5-5-5-5--7-7-7-7-----------------5-5-5-5--7-7-7-7----------------------------------



1x Intro
1x Verse1
1x Bridge
1x Refrain
1x Verse1
1x Bridge
1x Refrain
1x Verse2
1x Verse1
1x Bridge
1x Refrain
1x Verse2
1x Verse1
1x Bridge
1x End
Colaboração e revisão:
  • thyago
1.078 exibições

0 comentários

Mostrar mais comentários

Conseguiu tocar?

1 Tocaram 0 Ainda não

Grave um vídeo tocando Any Way You Want It e mande pra gente!

00:00 / 00:00
outros vídeos desta música
repetir qualidade Automático
Outros vídeos desta música
00:00 / 00:00
Automático

Cifra Club Pro

Aproveite o Cifra Club com benefícios exclusivos e sem anúncios
7 dias grátis
Cifra Club Pro
Aproveite o Cifra Club com benefícios exclusivos e sem anúncios
7 dias grátis
OK