Cifra Club

Aprenda

I Wanna Be Sedated

Ramones

Tab de baixo: Versão 2
Já pensou em usar uma coleção de roupas do Cifra Club? Responda as perguntas abaixo e nos ajude nessa missão! →
Intro
G----------------------------------------------|
D----------------------------------------------|
A-6/7-7-7-7-7-7-7-7-7-7-7----------------------| 2x
E----------------------------------------------|

0:05
G----------------------------------------------|
D----------------------7-7-7-7-7---------------|
A-7-7-7-7-7-7-7-7-7-7-7----------7-7-7-7-7-7---| 2x
E----------------------------------------------|

0:15
G------------------------------------------------------------|
D-9-9-9-9-9-9---------9-9-9-9-9------------7-7-7-7-7-9-9-9-9-|
A-------------7-7-7-7-----------7-7-7-7-7-7------------------|
E------------------------------------------------------------|

0:26
G----------------------------------------------------------|
D----------------------------------------------------------|
A-7-7-7-7-7-7-7-7-7----------------------------------------|
E----------------------------------------------------------|

0:30
G---------------------------------------------------------|
D---------------------7-7-7-7-7-7-7-----------------------|
A-7-7-7-7-7-7-7-7-7-7--------------7-7-7-7-7-7------------| 2x
E---------------------------------------------------------|

0:38
G-------------------------------------------------------|
D-9-9-9-9-9-9-9------------9-9-9-9-9-9-9----------------|
A---------------7-7-7-7-7-7--------------7-7-7-7-7-7-7--|
E-------------------------------------------------------|

G-------------------------------------------------------------|
D-9-9-9-9-9-9-9-9--------------7-7-7-7-7-7-7-9-9-9-9-9-9-9-9--|
A-----------------7-7-7-7-7-7-7-------------------------------|
E-------------------------------------------------------------|

0:50
G--------------------------------------------------------------|
D----------------7-7-7-7-7-7-7-7-9-9-9-9-9-9-9-9---------------| 2x
A-7-7-7-7-7-7-7-7--------------------------------7-7-7-7-7-7---|
E--------------------------------------------------------------|

0:59
G---------------------------------------------|
D---------------------------------------------|
A-6/7-7-7-7-7-7-7-7-7-7-7-7-7-7-7-7-7-7-------|
E---------------------------------------------|

1:02
G----------------------------------------------|
D------------9-9-9-9-9-9-9-9-------------------|
A-9-9-9-9-9-9----------------9-9-9-9-9-9-9-----| 2x
E----------------------------------------------|

1:12
G-----------------------------------------------|
D-11-11-11-11-11-11-----------------------------|
A------------------9-9-9-9-9-9-9----------------| 2x
E-----------------------------------------------|

G--------------------------------------------------------------------|
D-11-11-11-11-11-11-------------9-9-9-9-9-9-11-11-11-11--------------|
A------------------9-9-9-9-9-9-9-----------------------9-9-9-9-9-9-9-|
E--------------------------------------------------------------------|

1:21
G--------------------------------------------------|
D--------------------------------------------------|
A-9-9-9-9-9-9-9-9-9-9-9-9-9-9-9-9------------------|
E--------------------------------------------------|

G--------------------------------------------------|
D----------------9-9-9-9-9-9-9-9-------------------|
A-9-9-9-9-9-9-9-9---------------9-9-9-9-9-9-9-9-9--| 2x
E--------------------------------------------------|

1:36
G---------------------------------------------|
D-11-11-11-11-11-11---------------------------|
A------------------9-9-9-9-9-9-9--------------| 2x
E---------------------------------------------|

G-----------------------------------------------------------------------|
D-11-11-11-11-11-11-----------9-9-9-9-9-9-9-11-11-11-11-11--------------|
A------------------9-9-9-9-9-9----------------------------9-9-9-9-9-9---|
E-----------------------------------------------------------------------|

End
1:45
G---------------------------------------------------------------|
D------------------9-9-9-9-9-9-9-11-11-11-11-11-11--------------|
A-9-9-9-9-9-9-9-9-9-------------------------------9-9-9-9-9-9-9-|  4x
E---------------------------------------------------------------|
Composição de Ramones
3.108 exibições

0 comentários

Ver todos os comentários

Conseguiu tocar?

0 Tocaram 0 Ainda não

Grave um vídeo tocando I Wanna Be Sedated e nos envie!

00:00 / 00:00
Outros vídeos desta música
Repetir Qualidade Automático
Outros vídeos desta música
00:00 / 00:00
Automático

Cifra Club Pro

Aproveite o Cifra Club com benefícios exclusivos e sem anúncios
Cifra Club Pro
Aproveite o Cifra Club com benefícios exclusivos e sem anúncios
OK